  0
SECTION
  2
BLOCKS
  0
ENDSEC
  0
SECTION
  2
ENTITIES
  0
LINE
  8
0
 10
36
 20
35.0877
 11
36.4821
 21
35.0292
  0
LINE
  8
0
 10
36.4821
 20
35.0292
 11
38.2722
 21
35.7081
  0
LINE
  8
0
 10
38.2722
 20
35.7081
 11
39.5418
 21
37.1411
  0
LINE
  8
0
 10
39.5418
 20
37.1411
 11
40
 21
39
  0
LINE
  8
0
 10
40
 20
39
 11
40
 21
81
  0
LINE
  8
0
 10
40
 20
81
 11
39.5418
 21
82.8589
  0
LINE
  8
0
 10
39.5418
 20
82.8589
 11
38.2722
 21
84.2919
  0
LINE
  8
0
 10
38.2722
 20
84.2919
 11
36.4821
 21
84.9708
  0
LINE
  8
0
 10
36.4821
 20
84.9708
 11
36
 21
84.9123
  0
LINE
  8
0
 10
36
 20
84.9123
 11
36
 21
85
  0
LINE
  8
0
 10
36
 20
85
 11
-36
 21
85
  0
LINE
  8
0
 10
-36
 20
85
 11
-36
 21
84.9123
  0
LINE
  8
0
 10
-36
 20
84.9123
 11
-37.4184
 21
84.7401
  0
LINE
  8
0
 10
-37.4184
 20
84.7401
 11
-38.994
 21
83.6525
  0
LINE
  8
0
 10
-38.994
 20
83.6525
 11
-39.8838
 21
81.9573
  0
LINE
  8
0
 10
-39.8838
 20
81.9573
 11
-39.8838
 21
81
  0
LINE
  8
0
 10
-39.8838
 20
81
 11
-40
 21
81
  0
LINE
  8
0
 10
-40
 20
81
 11
-40
 21
39
  0
LINE
  8
0
 10
-40
 20
39
 11
-39.8838
 21
39
  0
LINE
  8
0
 10
-39.8838
 20
39
 11
-39.8838
 21
38.0427
  0
LINE
  8
0
 10
-39.8838
 20
38.0427
 11
-38.994
 21
36.3475
  0
LINE
  8
0
 10
-38.994
 20
36.3475
 11
-37.4184
 21
35.2599
  0
LINE
  8
0
 10
-37.4184
 20
35.2599
 11
-36
 21
35.0877
  0
LINE
  8
0
 10
-36
 20
35.0877
 11
-36
 21
35
  0
LINE
  8
0
 10
-36
 20
35
 11
36
 21
35
  0
LINE
  8
0
 10
36
 20
35
 11
36
 21
35.0877
  0
LINE
  8
0
 10
0.549988
 20
63.15
 11
0.549988
 21
81
  0
LINE
  8
0
 10
0.549988
 20
81
 11
5.79999
 21
81
  0
LINE
  8
0
 10
5.79999
 20
81
 11
5.79999
 21
63.15
  0
LINE
  8
0
 10
5.79999
 20
63.15
 11
0.549988
 21
63.15
  0
LINE
  8
0
 10
-7.25
 20
56.1029
 11
-9.5
 21
60
  0
LINE
  8
0
 10
-9.5
 20
60
 11
-7.24998
 21
63.8971
  0
LINE
  8
0
 10
-7.24998
 20
63.8971
 11
-2.75
 21
63.8971
  0
LINE
  8
0
 10
-2.75
 20
63.8971
 11
-0.5
 21
60
  0
LINE
  8
0
 10
-0.5
 20
60
 11
-2.75
 21
56.1029
  0
LINE
  8
0
 10
-2.75
 20
56.1029
 11
-7.25
 21
56.1029
  0
LINE
  8
0
 10
0.549988
 20
39
 11
0.549988
 21
56.85
  0
LINE
  8
0
 10
0.549988
 20
56.85
 11
5.79999
 21
56.85
  0
LINE
  8
0
 10
5.79999
 20
56.85
 11
5.79999
 21
39
  0
LINE
  8
0
 10
5.79999
 20
39
 11
0.549988
 21
39
  0
LINE
  8
0
 10
36
 20
-24.9123
 11
36.4821
 21
-24.9708
  0
LINE
  8
0
 10
36.4821
 20
-24.9708
 11
38.2722
 21
-24.2919
  0
LINE
  8
0
 10
38.2722
 20
-24.2919
 11
39.5418
 21
-22.8589
  0
LINE
  8
0
 10
39.5418
 20
-22.8589
 11
40
 21
-21
  0
LINE
  8
0
 10
40
 20
-21
 11
40
 21
21
  0
LINE
  8
0
 10
40
 20
21
 11
39.5418
 21
22.8589
  0
LINE
  8
0
 10
39.5418
 20
22.8589
 11
38.2722
 21
24.2919
  0
LINE
  8
0
 10
38.2722
 20
24.2919
 11
36.4821
 21
24.9708
  0
LINE
  8
0
 10
36.4821
 20
24.9708
 11
36
 21
24.9123
  0
LINE
  8
0
 10
36
 20
24.9123
 11
36
 21
25
  0
LINE
  8
0
 10
36
 20
25
 11
-36
 21
25
  0
LINE
  8
0
 10
-36
 20
25
 11
-36
 21
24.9123
  0
LINE
  8
0
 10
-36
 20
24.9123
 11
-37.4184
 21
24.7401
  0
LINE
  8
0
 10
-37.4184
 20
24.7401
 11
-38.994
 21
23.6525
  0
LINE
  8
0
 10
-38.994
 20
23.6525
 11
-39.8838
 21
21.9573
  0
LINE
  8
0
 10
-39.8838
 20
21.9573
 11
-39.8838
 21
21
  0
LINE
  8
0
 10
-39.8838
 20
21
 11
-40
 21
21
  0
LINE
  8
0
 10
-40
 20
21
 11
-40
 21
-21
  0
LINE
  8
0
 10
-40
 20
-21
 11
-39.8838
 21
-21
  0
LINE
  8
0
 10
-39.8838
 20
-21
 11
-39.8838
 21
-21.9573
  0
LINE
  8
0
 10
-39.8838
 20
-21.9573
 11
-38.994
 21
-23.6525
  0
LINE
  8
0
 10
-38.994
 20
-23.6525
 11
-37.4184
 21
-24.7401
  0
LINE
  8
0
 10
-37.4184
 20
-24.7401
 11
-36
 21
-24.9123
  0
LINE
  8
0
 10
-36
 20
-24.9123
 11
-36
 21
-25
  0
LINE
  8
0
 10
-36
 20
-25
 11
36
 21
-25
  0
LINE
  8
0
 10
36
 20
-25
 11
36
 21
-24.9123
  0
LINE
  8
0
 10
0.549988
 20
3.14999
 11
0.549988
 21
21
  0
LINE
  8
0
 10
0.549988
 20
21
 11
5.79999
 21
21
  0
LINE
  8
0
 10
5.79999
 20
21
 11
5.79999
 21
3.14999
  0
LINE
  8
0
 10
5.79999
 20
3.14999
 11
0.549988
 21
3.14999
  0
LINE
  8
0
 10
-5.41063
 20
-2.59268
 11
-5.81116
 21
-2.49652
  0
LINE
  8
0
 10
-5.81116
 20
-2.49652
 11
-6.19171
 21
-2.33888
  0
LINE
  8
0
 10
-6.19171
 20
-2.33888
 11
-6.54292
 21
-2.12366
  0
LINE
  8
0
 10
-6.54292
 20
-2.12366
 11
-6.85614
 21
-1.85614
  0
LINE
  8
0
 10
-6.85614
 20
-1.85614
 11
-7.12366
 21
-1.54292
  0
LINE
  8
0
 10
-7.12366
 20
-1.54292
 11
-7.33888
 21
-1.19171
  0
LINE
  8
0
 10
-7.33888
 20
-1.19171
 11
-7.49652
 21
-0.811157
  0
LINE
  8
0
 10
-7.49652
 20
-0.811157
 11
-7.59268
 21
-0.410629
  0
LINE
  8
0
 10
-7.59268
 20
-0.410629
 11
-7.625
 21
0
  0
LINE
  8
0
 10
-7.625
 20
0
 11
-7.59268
 21
0.410629
  0
LINE
  8
0
 10
-7.59268
 20
0.410629
 11
-7.49652
 21
0.811157
  0
LINE
  8
0
 10
-7.49652
 20
0.811157
 11
-7.33888
 21
1.19171
  0
LINE
  8
0
 10
-7.33888
 20
1.19171
 11
-7.12366
 21
1.54292
  0
LINE
  8
0
 10
-7.12366
 20
1.54292
 11
-6.85614
 21
1.85614
  0
LINE
  8
0
 10
-6.85614
 20
1.85614
 11
-6.54292
 21
2.12366
  0
LINE
  8
0
 10
-6.54292
 20
2.12366
 11
-6.19171
 21
2.33888
  0
LINE
  8
0
 10
-6.19171
 20
2.33888
 11
-5.81116
 21
2.49652
  0
LINE
  8
0
 10
-5.81116
 20
2.49652
 11
-5.41063
 21
2.59268
  0
LINE
  8
0
 10
-5.41063
 20
2.59268
 11
-5
 21
2.625
  0
LINE
  8
0
 10
-5
 20
2.625
 11
-4.58936
 21
2.59268
  0
LINE
  8
0
 10
-4.58936
 20
2.59268
 11
-4.18883
 21
2.49652
  0
LINE
  8
0
 10
-4.18883
 20
2.49652
 11
-3.80827
 21
2.33888
  0
LINE
  8
0
 10
-3.80827
 20
2.33888
 11
-3.45706
 21
2.12366
  0
LINE
  8
0
 10
-3.45706
 20
2.12366
 11
-3.14384
 21
1.85614
  0
LINE
  8
0
 10
-3.14384
 20
1.85614
 11
-2.87633
 21
1.54292
  0
LINE
  8
0
 10
-2.87633
 20
1.54292
 11
-2.6611
 21
1.19171
  0
LINE
  8
0
 10
-2.6611
 20
1.19171
 11
-2.50346
 21
0.811157
  0
LINE
  8
0
 10
-2.50346
 20
0.811157
 11
-2.40732
 21
0.410629
  0
LINE
  8
0
 10
-2.40732
 20
0.410629
 11
-2.375
 21
0
  0
LINE
  8
0
 10
-2.375
 20
0
 11
-2.40732
 21
-0.410629
  0
LINE
  8
0
 10
-2.40732
 20
-0.410629
 11
-2.50346
 21
-0.811157
  0
LINE
  8
0
 10
-2.50346
 20
-0.811157
 11
-2.6611
 21
-1.19171
  0
LINE
  8
0
 10
-2.6611
 20
-1.19171
 11
-2.87633
 21
-1.54292
  0
LINE
  8
0
 10
-2.87633
 20
-1.54292
 11
-3.14384
 21
-1.85614
  0
LINE
  8
0
 10
-3.14384
 20
-1.85614
 11
-3.45706
 21
-2.12366
  0
LINE
  8
0
 10
-3.45706
 20
-2.12366
 11
-3.80827
 21
-2.33888
  0
LINE
  8
0
 10
-3.80827
 20
-2.33888
 11
-4.18883
 21
-2.49652
  0
LINE
  8
0
 10
-4.18883
 20
-2.49652
 11
-4.58936
 21
-2.59268
  0
LINE
  8
0
 10
-4.58936
 20
-2.59268
 11
-5
 21
-2.625
  0
LINE
  8
0
 10
-5
 20
-2.625
 11
-5.41063
 21
-2.59268
  0
LINE
  8
0
 10
0.549988
 20
-21
 11
0.549988
 21
-3.14999
  0
LINE
  8
0
 10
0.549988
 20
-3.14999
 11
5.79999
 21
-3.14999
  0
LINE
  8
0
 10
5.79999
 20
-3.14999
 11
5.79999
 21
-21
  0
LINE
  8
0
 10
5.79999
 20
-21
 11
0.549988
 21
-21
  0
ENDSEC
  0
SECTION
  2
OBJECTS
  0
DICTIONARY
  0
ENDSEC
  0
EOF
