  0
SECTION
  2
BLOCKS
  0
ENDSEC
  0
SECTION
  2
ENTITIES
  0
LINE
  8
0
 10
6.9913
 20
62.7736
 11
32.4913
 21
62.7736
  0
LINE
  8
0
 10
32.4913
 20
62.7736
 11
32.4913
 21
102.124
  0
LINE
  8
0
 10
32.4913
 20
102.124
 11
6.9913
 21
102.124
  0
LINE
  8
0
 10
6.9913
 20
102.124
 11
6.9913
 21
105.124
  0
LINE
  8
0
 10
6.9913
 20
105.124
 11
-23.5087
 21
105.124
  0
LINE
  8
0
 10
-23.5087
 20
105.124
 11
-23.5087
 21
102.124
  0
LINE
  8
0
 10
-23.5087
 20
102.124
 11
-53.4212
 21
102.124
  0
LINE
  8
0
 10
-53.4212
 20
102.124
 11
-53.4212
 21
91.0486
  0
LINE
  8
0
 10
-53.4212
 20
91.0486
 11
-56.5087
 21
91.0486
  0
LINE
  8
0
 10
-56.5087
 20
91.0486
 11
-56.5087
 21
73.8486
  0
LINE
  8
0
 10
-56.5087
 20
73.8486
 11
-53.4212
 21
73.8486
  0
LINE
  8
0
 10
-53.4212
 20
73.8486
 11
-53.4212
 21
62.7736
  0
LINE
  8
0
 10
-53.4212
 20
62.7736
 11
-23.5087
 21
62.7736
  0
LINE
  8
0
 10
-23.5087
 20
62.7736
 11
-23.5087
 21
59.7736
  0
LINE
  8
0
 10
-23.5087
 20
59.7736
 11
6.9913
 21
59.7736
  0
LINE
  8
0
 10
6.9913
 20
59.7736
 11
6.9913
 21
62.7736
  0
LINE
  8
0
 10
193.513
 20
-54.427
 11
195.039
 21
-54.0607
  0
LINE
  8
0
 10
195.039
 20
-54.0607
 11
196.489
 21
-53.4601
  0
LINE
  8
0
 10
196.489
 20
-53.4601
 11
197.827
 21
-52.6403
  0
LINE
  8
0
 10
197.827
 20
-52.6403
 11
199.02
 21
-51.6212
  0
LINE
  8
0
 10
199.02
 20
-51.6212
 11
200.039
 21
-50.4279
  0
LINE
  8
0
 10
200.039
 20
-50.4279
 11
200.859
 21
-49.09
  0
LINE
  8
0
 10
200.859
 20
-49.09
 11
201.459
 21
-47.6403
  0
LINE
  8
0
 10
201.459
 20
-47.6403
 11
201.826
 21
-46.1144
  0
LINE
  8
0
 10
201.826
 20
-46.1144
 11
201.949
 21
-44.5501
  0
LINE
  8
0
 10
201.949
 20
-44.5501
 11
201.949
 21
-39.8269
  0
LINE
  8
0
 10
201.949
 20
-39.8269
 11
181.697
 21
55.4499
  0
LINE
  8
0
 10
181.697
 20
55.4499
 11
61.9487
 21
55.4499
  0
LINE
  8
0
 10
61.9487
 20
55.4499
 11
60.3844
 21
55.3268
  0
LINE
  8
0
 10
60.3844
 20
55.3268
 11
58.8586
 21
54.9605
  0
LINE
  8
0
 10
58.8586
 20
54.9605
 11
57.4088
 21
54.36
  0
LINE
  8
0
 10
57.4088
 20
54.36
 11
56.0709
 21
53.5401
  0
LINE
  8
0
 10
56.0709
 20
53.5401
 11
54.8777
 21
52.521
  0
LINE
  8
0
 10
54.8777
 20
52.521
 11
53.8586
 21
51.3277
  0
LINE
  8
0
 10
53.8586
 20
51.3277
 11
53.0387
 21
49.9898
  0
LINE
  8
0
 10
53.0387
 20
49.9898
 11
52.4382
 21
48.5401
  0
LINE
  8
0
 10
52.4382
 20
48.5401
 11
52.0719
 21
47.0142
  0
LINE
  8
0
 10
52.0719
 20
47.0142
 11
51.9487
 21
45.4499
  0
LINE
  8
0
 10
51.9487
 20
45.4499
 11
51.9487
 21
-44.5501
  0
LINE
  8
0
 10
51.9487
 20
-44.5501
 11
52.0719
 21
-46.1144
  0
LINE
  8
0
 10
52.0719
 20
-46.1144
 11
52.4382
 21
-47.6403
  0
LINE
  8
0
 10
52.4382
 20
-47.6403
 11
53.0387
 21
-49.09
  0
LINE
  8
0
 10
53.0387
 20
-49.09
 11
53.8586
 21
-50.4279
  0
LINE
  8
0
 10
53.8586
 20
-50.4279
 11
54.8777
 21
-51.6212
  0
LINE
  8
0
 10
54.8777
 20
-51.6212
 11
56.0709
 21
-52.6402
  0
LINE
  8
0
 10
56.0709
 20
-52.6402
 11
57.4088
 21
-53.4601
  0
LINE
  8
0
 10
57.4088
 20
-53.4601
 11
58.8586
 21
-54.0607
  0
LINE
  8
0
 10
58.8586
 20
-54.0607
 11
60.3844
 21
-54.427
  0
LINE
  8
0
 10
60.3844
 20
-54.427
 11
61.9487
 21
-54.5501
  0
LINE
  8
0
 10
61.9487
 20
-54.5501
 11
191.949
 21
-54.5501
  0
LINE
  8
0
 10
191.949
 20
-54.5501
 11
193.513
 21
-54.427
  0
LINE
  8
0
 10
58.1284
 20
50.0199
 11
61.3035
 21
50.0199
  0
LINE
  8
0
 10
61.3035
 20
50.0199
 11
61.3035
 21
28.2699
  0
LINE
  8
0
 10
61.3035
 20
28.2699
 11
58.1284
 21
28.2699
  0
LINE
  8
0
 10
58.1284
 20
28.2699
 11
58.1284
 21
50.0199
  0
LINE
  8
0
 10
90.9261
 20
46.6065
 11
90.9261
 21
49.7815
  0
LINE
  8
0
 10
90.9261
 20
49.7815
 11
121.426
 21
49.7815
  0
LINE
  8
0
 10
121.426
 20
49.7815
 11
121.426
 21
46.6065
  0
LINE
  8
0
 10
121.426
 20
46.6065
 11
90.9261
 21
46.6065
  0
LINE
  8
0
 10
154.005
 20
44.2332
 11
153.61
 21
44.2992
  0
LINE
  8
0
 10
153.61
 20
44.2992
 11
153.231
 21
44.4262
  0
LINE
  8
0
 10
153.231
 20
44.4262
 11
152.876
 21
44.611
  0
LINE
  8
0
 10
152.876
 20
44.611
 11
152.554
 21
44.849
  0
LINE
  8
0
 10
152.554
 20
44.849
 11
152.274
 21
45.1344
  0
LINE
  8
0
 10
152.274
 20
45.1344
 11
152.042
 21
45.4602
  0
LINE
  8
0
 10
152.042
 20
45.4602
 11
151.863
 21
45.8183
  0
LINE
  8
0
 10
151.863
 20
45.8183
 11
151.743
 21
46.1999
  0
LINE
  8
0
 10
151.743
 20
46.1999
 11
151.684
 21
46.5956
  0
LINE
  8
0
 10
151.684
 20
46.5956
 11
151.687
 21
46.9958
  0
LINE
  8
0
 10
151.687
 20
46.9958
 11
151.753
 21
47.3904
  0
LINE
  8
0
 10
151.753
 20
47.3904
 11
151.88
 21
47.7699
  0
LINE
  8
0
 10
151.88
 20
47.7699
 11
152.065
 21
48.1248
  0
LINE
  8
0
 10
152.065
 20
48.1248
 11
152.303
 21
48.4465
  0
LINE
  8
0
 10
152.303
 20
48.4465
 11
152.588
 21
48.7269
  0
LINE
  8
0
 10
152.588
 20
48.7269
 11
152.914
 21
48.9593
  0
LINE
  8
0
 10
152.914
 20
48.9593
 11
153.272
 21
49.1378
  0
LINE
  8
0
 10
153.272
 20
49.1378
 11
153.654
 21
49.2581
  0
LINE
  8
0
 10
153.654
 20
49.2581
 11
154.049
 21
49.3173
  0
LINE
  8
0
 10
154.049
 20
49.3173
 11
154.45
 21
49.3138
  0
LINE
  8
0
 10
154.45
 20
49.3138
 11
154.844
 21
49.2478
  0
LINE
  8
0
 10
154.844
 20
49.2478
 11
155.224
 21
49.1208
  0
LINE
  8
0
 10
155.224
 20
49.1208
 11
155.579
 21
48.936
  0
LINE
  8
0
 10
155.579
 20
48.936
 11
155.9
 21
48.698
  0
LINE
  8
0
 10
155.9
 20
48.698
 11
156.181
 21
48.4126
  0
LINE
  8
0
 10
156.181
 20
48.4126
 11
156.413
 21
48.0869
  0
LINE
  8
0
 10
156.413
 20
48.0869
 11
156.592
 21
47.7287
  0
LINE
  8
0
 10
156.592
 20
47.7287
 11
156.712
 21
47.3471
  0
LINE
  8
0
 10
156.712
 20
47.3471
 11
156.771
 21
46.9514
  0
LINE
  8
0
 10
156.771
 20
46.9514
 11
156.768
 21
46.5513
  0
LINE
  8
0
 10
156.768
 20
46.5513
 11
156.702
 21
46.1566
  0
LINE
  8
0
 10
156.702
 20
46.1566
 11
156.575
 21
45.7771
  0
LINE
  8
0
 10
156.575
 20
45.7771
 11
156.39
 21
45.4222
  0
LINE
  8
0
 10
156.39
 20
45.4222
 11
156.152
 21
45.1006
  0
LINE
  8
0
 10
156.152
 20
45.1006
 11
155.866
 21
44.8201
  0
LINE
  8
0
 10
155.866
 20
44.8201
 11
155.541
 21
44.5877
  0
LINE
  8
0
 10
155.541
 20
44.5877
 11
155.183
 21
44.4092
  0
LINE
  8
0
 10
155.183
 20
44.4092
 11
154.801
 21
44.2889
  0
LINE
  8
0
 10
154.801
 20
44.2889
 11
154.405
 21
44.2297
  0
LINE
  8
0
 10
154.405
 20
44.2297
 11
154.005
 21
44.2332
  0
LINE
  8
0
 10
173.173
 20
38.5448
 11
172.477
 21
38.6613
  0
LINE
  8
0
 10
172.477
 20
38.6613
 11
171.807
 21
38.8854
  0
LINE
  8
0
 10
171.807
 20
38.8854
 11
171.181
 21
39.2114
  0
LINE
  8
0
 10
171.181
 20
39.2114
 11
170.613
 21
39.6315
  0
LINE
  8
0
 10
170.613
 20
39.6315
 11
170.118
 21
40.1351
  0
LINE
  8
0
 10
170.118
 20
40.1351
 11
169.708
 21
40.71
  0
LINE
  8
0
 10
169.708
 20
40.71
 11
169.393
 21
41.3419
  0
LINE
  8
0
 10
169.393
 20
41.3419
 11
169.181
 21
42.0154
  0
LINE
  8
0
 10
169.181
 20
42.0154
 11
169.077
 21
42.7138
  0
LINE
  8
0
 10
169.077
 20
42.7138
 11
169.083
 21
43.4199
  0
LINE
  8
0
 10
169.083
 20
43.4199
 11
169.199
 21
44.1163
  0
LINE
  8
0
 10
169.199
 20
44.1163
 11
169.423
 21
44.786
  0
LINE
  8
0
 10
169.423
 20
44.786
 11
169.749
 21
45.4123
  0
LINE
  8
0
 10
169.749
 20
45.4123
 11
170.169
 21
45.9799
  0
LINE
  8
0
 10
170.169
 20
45.9799
 11
170.673
 21
46.4749
  0
LINE
  8
0
 10
170.673
 20
46.4749
 11
171.248
 21
46.8849
  0
LINE
  8
0
 10
171.248
 20
46.8849
 11
171.88
 21
47.2
  0
LINE
  8
0
 10
171.88
 20
47.2
 11
172.553
 21
47.4123
  0
LINE
  8
0
 10
172.553
 20
47.4123
 11
173.252
 21
47.5167
  0
LINE
  8
0
 10
173.252
 20
47.5167
 11
173.958
 21
47.5105
  0
LINE
  8
0
 10
173.958
 20
47.5105
 11
174.654
 21
47.394
  0
LINE
  8
0
 10
174.654
 20
47.394
 11
175.324
 21
47.1699
  0
LINE
  8
0
 10
175.324
 20
47.1699
 11
175.95
 21
46.8439
  0
LINE
  8
0
 10
175.95
 20
46.8439
 11
176.518
 21
46.4239
  0
LINE
  8
0
 10
176.518
 20
46.4239
 11
177.013
 21
45.9202
  0
LINE
  8
0
 10
177.013
 20
45.9202
 11
177.423
 21
45.3453
  0
LINE
  8
0
 10
177.423
 20
45.3453
 11
177.738
 21
44.7134
  0
LINE
  8
0
 10
177.738
 20
44.7134
 11
177.95
 21
44.0399
  0
LINE
  8
0
 10
177.95
 20
44.0399
 11
178.055
 21
43.3416
  0
LINE
  8
0
 10
178.055
 20
43.3416
 11
178.048
 21
42.6355
  0
LINE
  8
0
 10
178.048
 20
42.6355
 11
177.932
 21
41.939
  0
LINE
  8
0
 10
177.932
 20
41.939
 11
177.708
 21
41.2694
  0
LINE
  8
0
 10
177.708
 20
41.2694
 11
177.382
 21
40.643
  0
LINE
  8
0
 10
177.382
 20
40.643
 11
176.962
 21
40.0754
  0
LINE
  8
0
 10
176.962
 20
40.0754
 11
176.458
 21
39.5805
  0
LINE
  8
0
 10
176.458
 20
39.5805
 11
175.883
 21
39.1704
  0
LINE
  8
0
 10
175.883
 20
39.1704
 11
175.251
 21
38.8553
  0
LINE
  8
0
 10
175.251
 20
38.8553
 11
174.578
 21
38.643
  0
LINE
  8
0
 10
174.578
 20
38.643
 11
173.88
 21
38.5386
  0
LINE
  8
0
 10
173.88
 20
38.5386
 11
173.173
 21
38.5448
  0
LINE
  8
0
 10
113.137
 20
31.8683
 11
112.44
 21
31.9849
  0
LINE
  8
0
 10
112.44
 20
31.9849
 11
111.77
 21
32.2089
  0
LINE
  8
0
 10
111.77
 20
32.2089
 11
111.144
 21
32.535
  0
LINE
  8
0
 10
111.144
 20
32.535
 11
110.576
 21
32.955
  0
LINE
  8
0
 10
110.576
 20
32.955
 11
110.082
 21
33.4586
  0
LINE
  8
0
 10
110.082
 20
33.4586
 11
109.672
 21
34.0335
  0
LINE
  8
0
 10
109.672
 20
34.0335
 11
109.356
 21
34.6655
  0
LINE
  8
0
 10
109.356
 20
34.6655
 11
109.144
 21
35.3389
  0
LINE
  8
0
 10
109.144
 20
35.3389
 11
109.04
 21
36.0373
  0
LINE
  8
0
 10
109.04
 20
36.0373
 11
109.046
 21
36.7434
  0
LINE
  8
0
 10
109.046
 20
36.7434
 11
109.162
 21
37.4398
  0
LINE
  8
0
 10
109.162
 20
37.4398
 11
109.386
 21
38.1095
  0
LINE
  8
0
 10
109.386
 20
38.1095
 11
109.713
 21
38.7358
  0
LINE
  8
0
 10
109.713
 20
38.7358
 11
110.133
 21
39.3035
  0
LINE
  8
0
 10
110.133
 20
39.3035
 11
110.636
 21
39.7984
  0
LINE
  8
0
 10
110.636
 20
39.7984
 11
111.211
 21
40.2085
  0
LINE
  8
0
 10
111.211
 20
40.2085
 11
111.843
 21
40.5235
  0
LINE
  8
0
 10
111.843
 20
40.5235
 11
112.516
 21
40.7359
  0
LINE
  8
0
 10
112.516
 20
40.7359
 11
113.215
 21
40.8402
  0
LINE
  8
0
 10
113.215
 20
40.8402
 11
113.921
 21
40.8341
  0
LINE
  8
0
 10
113.921
 20
40.8341
 11
114.617
 21
40.7175
  0
LINE
  8
0
 10
114.617
 20
40.7175
 11
115.287
 21
40.4935
  0
LINE
  8
0
 10
115.287
 20
40.4935
 11
115.913
 21
40.1674
  0
LINE
  8
0
 10
115.913
 20
40.1674
 11
116.481
 21
39.7474
  0
LINE
  8
0
 10
116.481
 20
39.7474
 11
116.976
 21
39.2437
  0
LINE
  8
0
 10
116.976
 20
39.2437
 11
117.386
 21
38.6689
  0
LINE
  8
0
 10
117.386
 20
38.6689
 11
117.701
 21
38.0369
  0
LINE
  8
0
 10
117.701
 20
38.0369
 11
117.913
 21
37.3635
  0
LINE
  8
0
 10
117.913
 20
37.3635
 11
118.018
 21
36.6651
  0
LINE
  8
0
 10
118.018
 20
36.6651
 11
118.012
 21
35.959
  0
LINE
  8
0
 10
118.012
 20
35.959
 11
117.895
 21
35.2625
  0
LINE
  8
0
 10
117.895
 20
35.2625
 11
117.671
 21
34.5929
  0
LINE
  8
0
 10
117.671
 20
34.5929
 11
117.345
 21
33.9666
  0
LINE
  8
0
 10
117.345
 20
33.9666
 11
116.925
 21
33.3989
  0
LINE
  8
0
 10
116.925
 20
33.3989
 11
116.421
 21
32.904
  0
LINE
  8
0
 10
116.421
 20
32.904
 11
115.846
 21
32.4939
  0
LINE
  8
0
 10
115.846
 20
32.4939
 11
115.214
 21
32.1789
  0
LINE
  8
0
 10
115.214
 20
32.1789
 11
114.541
 21
31.9665
  0
LINE
  8
0
 10
114.541
 20
31.9665
 11
113.843
 21
31.8622
  0
LINE
  8
0
 10
113.843
 20
31.8622
 11
113.137
 21
31.8683
  0
LINE
  8
0
 10
174.449
 20
13.0439
 11
172.755
 21
13.3275
  0
LINE
  8
0
 10
172.755
 20
13.3275
 11
171.125
 21
13.8727
  0
LINE
  8
0
 10
171.125
 20
13.8727
 11
169.601
 21
14.6661
  0
LINE
  8
0
 10
169.601
 20
14.6661
 11
168.22
 21
15.6882
  0
LINE
  8
0
 10
168.22
 20
15.6882
 11
167.016
 21
16.9137
  0
LINE
  8
0
 10
167.016
 20
16.9137
 11
166.018
 21
18.3126
  0
LINE
  8
0
 10
166.018
 20
18.3126
 11
165.251
 21
19.8503
  0
LINE
  8
0
 10
165.251
 20
19.8503
 11
164.734
 21
21.489
  0
LINE
  8
0
 10
164.734
 20
21.489
 11
164.48
 21
23.1884
  0
LINE
  8
0
 10
164.48
 20
23.1884
 11
164.495
 21
24.9066
  0
LINE
  8
0
 10
164.495
 20
24.9066
 11
164.779
 21
26.6013
  0
LINE
  8
0
 10
164.779
 20
26.6013
 11
165.324
 21
28.2308
  0
LINE
  8
0
 10
165.324
 20
28.2308
 11
166.118
 21
29.7549
  0
LINE
  8
0
 10
166.118
 20
29.7549
 11
167.14
 21
31.1361
  0
LINE
  8
0
 10
167.14
 20
31.1361
 11
168.365
 21
32.3404
  0
LINE
  8
0
 10
168.365
 20
32.3404
 11
169.764
 21
33.3382
  0
LINE
  8
0
 10
169.764
 20
33.3382
 11
171.302
 21
34.1049
  0
LINE
  8
0
 10
171.302
 20
34.1049
 11
172.941
 21
34.6216
  0
LINE
  8
0
 10
172.941
 20
34.6216
 11
174.64
 21
34.8756
  0
LINE
  8
0
 10
174.64
 20
34.8756
 11
176.358
 21
34.8606
  0
LINE
  8
0
 10
176.358
 20
34.8606
 11
178.053
 21
34.577
  0
LINE
  8
0
 10
178.053
 20
34.577
 11
179.682
 21
34.0318
  0
LINE
  8
0
 10
179.682
 20
34.0318
 11
181.206
 21
33.2384
  0
LINE
  8
0
 10
181.206
 20
33.2384
 11
182.588
 21
32.2163
  0
LINE
  8
0
 10
182.588
 20
32.2163
 11
183.792
 21
30.9908
  0
LINE
  8
0
 10
183.792
 20
30.9908
 11
184.79
 21
29.5919
  0
LINE
  8
0
 10
184.79
 20
29.5919
 11
185.556
 21
28.0542
  0
LINE
  8
0
 10
185.556
 20
28.0542
 11
186.073
 21
26.4155
  0
LINE
  8
0
 10
186.073
 20
26.4155
 11
186.327
 21
24.7161
  0
LINE
  8
0
 10
186.327
 20
24.7161
 11
186.312
 21
22.9979
  0
LINE
  8
0
 10
186.312
 20
22.9979
 11
186.028
 21
21.3032
  0
LINE
  8
0
 10
186.028
 20
21.3032
 11
185.483
 21
19.6738
  0
LINE
  8
0
 10
185.483
 20
19.6738
 11
184.69
 21
18.1496
  0
LINE
  8
0
 10
184.69
 20
18.1496
 11
183.668
 21
16.7684
  0
LINE
  8
0
 10
183.668
 20
16.7684
 11
182.442
 21
15.5641
  0
LINE
  8
0
 10
182.442
 20
15.5641
 11
181.043
 21
14.5663
  0
LINE
  8
0
 10
181.043
 20
14.5663
 11
179.506
 21
13.7996
  0
LINE
  8
0
 10
179.506
 20
13.7996
 11
177.867
 21
13.2829
  0
LINE
  8
0
 10
177.867
 20
13.2829
 11
176.168
 21
13.0289
  0
LINE
  8
0
 10
176.168
 20
13.0289
 11
174.449
 21
13.0439
  0
LINE
  8
0
 10
119.297
 20
6.38835
 11
119.297
 21
31.3884
  0
LINE
  8
0
 10
119.297
 20
31.3884
 11
134.297
 21
31.3884
  0
LINE
  8
0
 10
134.297
 20
31.3884
 11
134.297
 21
6.38835
  0
LINE
  8
0
 10
134.297
 20
6.38835
 11
119.297
 21
6.38835
  0
LINE
  8
0
 10
88.063
 20
25.6846
 11
87.9286
 21
25.7059
  0
LINE
  8
0
 10
87.9286
 20
25.7059
 11
87.7972
 21
25.7411
  0
LINE
  8
0
 10
87.7972
 20
25.7411
 11
87.6701
 21
25.7899
  0
LINE
  8
0
 10
87.6701
 20
25.7899
 11
87.5489
 21
25.8516
  0
LINE
  8
0
 10
87.5489
 20
25.8516
 11
87.4348
 21
25.9258
  0
LINE
  8
0
 10
87.4348
 20
25.9258
 11
87.329
 21
26.0114
  0
LINE
  8
0
 10
87.329
 20
26.0114
 11
87.2328
 21
26.1076
  0
LINE
  8
0
 10
87.2328
 20
26.1076
 11
87.1472
 21
26.2134
  0
LINE
  8
0
 10
87.1472
 20
26.2134
 11
87.0731
 21
26.3275
  0
LINE
  8
0
 10
87.0731
 20
26.3275
 11
87.0113
 21
26.4487
  0
LINE
  8
0
 10
87.0113
 20
26.4487
 11
86.9625
 21
26.5758
  0
LINE
  8
0
 10
86.9625
 20
26.5758
 11
86.9273
 21
26.7072
  0
LINE
  8
0
 10
86.9273
 20
26.7072
 11
86.906
 21
26.8416
  0
LINE
  8
0
 10
86.906
 20
26.8416
 11
86.8989
 21
26.9775
  0
LINE
  8
0
 10
86.8989
 20
26.9775
 11
86.906
 21
27.1134
  0
LINE
  8
0
 10
86.906
 20
27.1134
 11
86.9273
 21
27.2478
  0
LINE
  8
0
 10
86.9273
 20
27.2478
 11
86.9625
 21
27.3792
  0
LINE
  8
0
 10
86.9625
 20
27.3792
 11
87.0113
 21
27.5062
  0
LINE
  8
0
 10
87.0113
 20
27.5062
 11
87.0731
 21
27.6275
  0
LINE
  8
0
 10
87.0731
 20
27.6275
 11
87.1472
 21
27.7416
  0
LINE
  8
0
 10
87.1472
 20
27.7416
 11
87.2328
 21
27.8474
  0
LINE
  8
0
 10
87.2328
 20
27.8474
 11
87.329
 21
27.9436
  0
LINE
  8
0
 10
87.329
 20
27.9436
 11
87.4348
 21
28.0292
  0
LINE
  8
0
 10
87.4348
 20
28.0292
 11
87.5489
 21
28.1033
  0
LINE
  8
0
 10
87.5489
 20
28.1033
 11
87.6701
 21
28.1651
  0
LINE
  8
0
 10
87.6701
 20
28.1651
 11
87.7972
 21
28.2139
  0
LINE
  8
0
 10
87.7972
 20
28.2139
 11
87.9286
 21
28.2491
  0
LINE
  8
0
 10
87.9286
 20
28.2491
 11
88.063
 21
28.2704
  0
LINE
  8
0
 10
88.063
 20
28.2704
 11
88.1989
 21
28.2775
  0
LINE
  8
0
 10
88.1989
 20
28.2775
 11
88.3348
 21
28.2704
  0
LINE
  8
0
 10
88.3348
 20
28.2704
 11
88.4692
 21
28.2491
  0
LINE
  8
0
 10
88.4692
 20
28.2491
 11
88.6006
 21
28.2139
  0
LINE
  8
0
 10
88.6006
 20
28.2139
 11
88.7276
 21
28.1651
  0
LINE
  8
0
 10
88.7276
 20
28.1651
 11
88.8489
 21
28.1033
  0
LINE
  8
0
 10
88.8489
 20
28.1033
 11
88.963
 21
28.0292
  0
LINE
  8
0
 10
88.963
 20
28.0292
 11
89.0688
 21
27.9436
  0
LINE
  8
0
 10
89.0688
 20
27.9436
 11
89.165
 21
27.8473
  0
LINE
  8
0
 10
89.165
 20
27.8473
 11
89.2506
 21
27.7416
  0
LINE
  8
0
 10
89.2506
 20
27.7416
 11
89.3247
 21
27.6275
  0
LINE
  8
0
 10
89.3247
 20
27.6275
 11
89.3865
 21
27.5062
  0
LINE
  8
0
 10
89.3865
 20
27.5062
 11
89.4353
 21
27.3792
  0
LINE
  8
0
 10
89.4353
 20
27.3792
 11
89.4705
 21
27.2478
  0
LINE
  8
0
 10
89.4705
 20
27.2478
 11
89.4918
 21
27.1134
  0
LINE
  8
0
 10
89.4918
 20
27.1134
 11
89.4989
 21
26.9775
  0
LINE
  8
0
 10
89.4989
 20
26.9775
 11
89.4918
 21
26.8416
  0
LINE
  8
0
 10
89.4918
 20
26.8416
 11
89.4705
 21
26.7072
  0
LINE
  8
0
 10
89.4705
 20
26.7072
 11
89.4353
 21
26.5758
  0
LINE
  8
0
 10
89.4353
 20
26.5758
 11
89.3865
 21
26.4487
  0
LINE
  8
0
 10
89.3865
 20
26.4487
 11
89.3247
 21
26.3275
  0
LINE
  8
0
 10
89.3247
 20
26.3275
 11
89.2506
 21
26.2133
  0
LINE
  8
0
 10
89.2506
 20
26.2133
 11
89.165
 21
26.1076
  0
LINE
  8
0
 10
89.165
 20
26.1076
 11
89.0688
 21
26.0114
  0
LINE
  8
0
 10
89.0688
 20
26.0114
 11
88.963
 21
25.9258
  0
LINE
  8
0
 10
88.963
 20
25.9258
 11
88.8489
 21
25.8516
  0
LINE
  8
0
 10
88.8489
 20
25.8516
 11
88.7276
 21
25.7899
  0
LINE
  8
0
 10
88.7276
 20
25.7899
 11
88.6006
 21
25.7411
  0
LINE
  8
0
 10
88.6006
 20
25.7411
 11
88.4692
 21
25.7059
  0
LINE
  8
0
 10
88.4692
 20
25.7059
 11
88.3348
 21
25.6846
  0
LINE
  8
0
 10
88.3348
 20
25.6846
 11
88.1989
 21
25.6775
  0
LINE
  8
0
 10
88.1989
 20
25.6775
 11
88.063
 21
25.6846
  0
LINE
  8
0
 10
141.003
 20
22.7579
 11
140.608
 21
22.8239
  0
LINE
  8
0
 10
140.608
 20
22.8239
 11
140.229
 21
22.9509
  0
LINE
  8
0
 10
140.229
 20
22.9509
 11
139.874
 21
23.1357
  0
LINE
  8
0
 10
139.874
 20
23.1357
 11
139.552
 21
23.3737
  0
LINE
  8
0
 10
139.552
 20
23.3737
 11
139.272
 21
23.6591
  0
LINE
  8
0
 10
139.272
 20
23.6591
 11
139.039
 21
23.9849
  0
LINE
  8
0
 10
139.039
 20
23.9849
 11
138.861
 21
24.343
  0
LINE
  8
0
 10
138.861
 20
24.343
 11
138.74
 21
24.7246
  0
LINE
  8
0
 10
138.74
 20
24.7246
 11
138.681
 21
25.1203
  0
LINE
  8
0
 10
138.681
 20
25.1203
 11
138.685
 21
25.5204
  0
LINE
  8
0
 10
138.685
 20
25.5204
 11
138.751
 21
25.9151
  0
LINE
  8
0
 10
138.751
 20
25.9151
 11
138.878
 21
26.2946
  0
LINE
  8
0
 10
138.878
 20
26.2946
 11
139.062
 21
26.6495
  0
LINE
  8
0
 10
139.062
 20
26.6495
 11
139.3
 21
26.9712
  0
LINE
  8
0
 10
139.3
 20
26.9712
 11
139.586
 21
27.2516
  0
LINE
  8
0
 10
139.586
 20
27.2516
 11
139.912
 21
27.484
  0
LINE
  8
0
 10
139.912
 20
27.484
 11
140.27
 21
27.6625
  0
LINE
  8
0
 10
140.27
 20
27.6625
 11
140.651
 21
27.7828
  0
LINE
  8
0
 10
140.651
 20
27.7828
 11
141.047
 21
27.842
  0
LINE
  8
0
 10
141.047
 20
27.842
 11
141.447
 21
27.8385
  0
LINE
  8
0
 10
141.447
 20
27.8385
 11
141.842
 21
27.7725
  0
LINE
  8
0
 10
141.842
 20
27.7725
 11
142.221
 21
27.6455
  0
LINE
  8
0
 10
142.221
 20
27.6455
 11
142.576
 21
27.4607
  0
LINE
  8
0
 10
142.576
 20
27.4607
 11
142.898
 21
27.2227
  0
LINE
  8
0
 10
142.898
 20
27.2227
 11
143.178
 21
26.9373
  0
LINE
  8
0
 10
143.178
 20
26.9373
 11
143.411
 21
26.6115
  0
LINE
  8
0
 10
143.411
 20
26.6115
 11
143.589
 21
26.2534
  0
LINE
  8
0
 10
143.589
 20
26.2534
 11
143.71
 21
25.8718
  0
LINE
  8
0
 10
143.71
 20
25.8718
 11
143.769
 21
25.4761
  0
LINE
  8
0
 10
143.769
 20
25.4761
 11
143.765
 21
25.076
  0
LINE
  8
0
 10
143.765
 20
25.076
 11
143.699
 21
24.6813
  0
LINE
  8
0
 10
143.699
 20
24.6813
 11
143.572
 21
24.3018
  0
LINE
  8
0
 10
143.572
 20
24.3018
 11
143.387
 21
23.9469
  0
LINE
  8
0
 10
143.387
 20
23.9469
 11
143.149
 21
23.6252
  0
LINE
  8
0
 10
143.149
 20
23.6252
 11
142.864
 21
23.3448
  0
LINE
  8
0
 10
142.864
 20
23.3448
 11
142.538
 21
23.1124
  0
LINE
  8
0
 10
142.538
 20
23.1124
 11
142.18
 21
22.9339
  0
LINE
  8
0
 10
142.18
 20
22.9339
 11
141.799
 21
22.8136
  0
LINE
  8
0
 10
141.799
 20
22.8136
 11
141.403
 21
22.7544
  0
LINE
  8
0
 10
141.403
 20
22.7544
 11
141.003
 21
22.7579
  0
LINE
  8
0
 10
140.742
 20
8.32939
 11
140.347
 21
8.39543
  0
LINE
  8
0
 10
140.347
 20
8.39543
 11
139.968
 21
8.5224
  0
LINE
  8
0
 10
139.968
 20
8.5224
 11
139.613
 21
8.70717
  0
LINE
  8
0
 10
139.613
 20
8.70717
 11
139.291
 21
8.94519
  0
LINE
  8
0
 10
139.291
 20
8.94519
 11
139.011
 21
9.23058
  0
LINE
  8
0
 10
139.011
 20
9.23058
 11
138.778
 21
9.55635
  0
LINE
  8
0
 10
138.778
 20
9.55635
 11
138.6
 21
9.91444
  0
LINE
  8
0
 10
138.6
 20
9.91444
 11
138.479
 21
10.2961
  0
LINE
  8
0
 10
138.479
 20
10.2961
 11
138.42
 21
10.6918
  0
LINE
  8
0
 10
138.42
 20
10.6918
 11
138.424
 21
11.0919
  0
LINE
  8
0
 10
138.424
 20
11.0919
 11
138.49
 21
11.4866
  0
LINE
  8
0
 10
138.49
 20
11.4866
 11
138.617
 21
11.8661
  0
LINE
  8
0
 10
138.617
 20
11.8661
 11
138.801
 21
12.221
  0
LINE
  8
0
 10
138.801
 20
12.221
 11
139.039
 21
12.5426
  0
LINE
  8
0
 10
139.039
 20
12.5426
 11
139.325
 21
12.8231
  0
LINE
  8
0
 10
139.325
 20
12.8231
 11
139.651
 21
13.0555
  0
LINE
  8
0
 10
139.651
 20
13.0555
 11
140.009
 21
13.234
  0
LINE
  8
0
 10
140.009
 20
13.234
 11
140.39
 21
13.3543
  0
LINE
  8
0
 10
140.39
 20
13.3543
 11
140.786
 21
13.4135
  0
LINE
  8
0
 10
140.786
 20
13.4135
 11
141.186
 21
13.41
  0
LINE
  8
0
 10
141.186
 20
13.41
 11
141.581
 21
13.3439
  0
LINE
  8
0
 10
141.581
 20
13.3439
 11
141.96
 21
13.217
  0
LINE
  8
0
 10
141.96
 20
13.217
 11
142.315
 21
13.0322
  0
LINE
  8
0
 10
142.315
 20
13.0322
 11
142.637
 21
12.7942
  0
LINE
  8
0
 10
142.637
 20
12.7942
 11
142.917
 21
12.5088
  0
LINE
  8
0
 10
142.917
 20
12.5088
 11
143.15
 21
12.183
  0
LINE
  8
0
 10
143.15
 20
12.183
 11
143.328
 21
11.8249
  0
LINE
  8
0
 10
143.328
 20
11.8249
 11
143.449
 21
11.4433
  0
LINE
  8
0
 10
143.449
 20
11.4433
 11
143.508
 21
11.0476
  0
LINE
  8
0
 10
143.508
 20
11.0476
 11
143.504
 21
10.6474
  0
LINE
  8
0
 10
143.504
 20
10.6474
 11
143.438
 21
10.2528
  0
LINE
  8
0
 10
143.438
 20
10.2528
 11
143.311
 21
9.87334
  0
LINE
  8
0
 10
143.311
 20
9.87334
 11
143.127
 21
9.5184
  0
LINE
  8
0
 10
143.127
 20
9.5184
 11
142.888
 21
9.19673
  0
LINE
  8
0
 10
142.888
 20
9.19673
 11
142.603
 21
8.91628
  0
LINE
  8
0
 10
142.603
 20
8.91628
 11
142.277
 21
8.68391
  0
LINE
  8
0
 10
142.277
 20
8.68391
 11
141.919
 21
8.50537
  0
LINE
  8
0
 10
141.919
 20
8.50537
 11
141.538
 21
8.38506
  0
LINE
  8
0
 10
141.538
 20
8.38506
 11
141.142
 21
8.3259
  0
LINE
  8
0
 10
141.142
 20
8.3259
 11
140.742
 21
8.32939
  0
LINE
  8
0
 10
58.1284
 20
8.26993
 11
61.3035
 21
8.26993
  0
LINE
  8
0
 10
61.3035
 20
8.26993
 11
61.3035
 21
-15.23
  0
LINE
  8
0
 10
61.3035
 20
-15.23
 11
58.1284
 21
-15.2301
  0
LINE
  8
0
 10
58.1284
 20
-15.2301
 11
58.1284
 21
8.26993
  0
LINE
  8
0
 10
188.751
 20
-6.24445
 11
188.356
 21
-6.17842
  0
LINE
  8
0
 10
188.356
 20
-6.17842
 11
187.977
 21
-6.05145
  0
LINE
  8
0
 10
187.977
 20
-6.05145
 11
187.622
 21
-5.86668
  0
LINE
  8
0
 10
187.622
 20
-5.86668
 11
187.3
 21
-5.62866
  0
LINE
  8
0
 10
187.3
 20
-5.62866
 11
187.019
 21
-5.34326
  0
LINE
  8
0
 10
187.019
 20
-5.34326
 11
186.787
 21
-5.0175
  0
LINE
  8
0
 10
186.787
 20
-5.0175
 11
186.609
 21
-4.65939
  0
LINE
  8
0
 10
186.609
 20
-4.65939
 11
186.488
 21
-4.27779
  0
LINE
  8
0
 10
186.488
 20
-4.27779
 11
186.429
 21
-3.88205
  0
LINE
  8
0
 10
186.429
 20
-3.88205
 11
186.433
 21
-3.48192
  0
LINE
  8
0
 10
186.433
 20
-3.48192
 11
186.499
 21
-3.08727
  0
LINE
  8
0
 10
186.499
 20
-3.08727
 11
186.626
 21
-2.70779
  0
LINE
  8
0
 10
186.626
 20
-2.70779
 11
186.81
 21
-2.35286
  0
LINE
  8
0
 10
186.81
 20
-2.35286
 11
187.048
 21
-2.0312
  0
LINE
  8
0
 10
187.048
 20
-2.0312
 11
187.334
 21
-1.75073
  0
LINE
  8
0
 10
187.334
 20
-1.75073
 11
187.66
 21
-1.51839
  0
LINE
  8
0
 10
187.66
 20
-1.51839
 11
188.018
 21
-1.33983
  0
LINE
  8
0
 10
188.018
 20
-1.33983
 11
188.399
 21
-1.21951
  0
LINE
  8
0
 10
188.399
 20
-1.21951
 11
188.795
 21
-1.16037
  0
LINE
  8
0
 10
188.795
 20
-1.16037
 11
189.195
 21
-1.16386
  0
LINE
  8
0
 10
189.195
 20
-1.16386
 11
189.59
 21
-1.2299
  0
LINE
  8
0
 10
189.59
 20
-1.2299
 11
189.969
 21
-1.35687
  0
LINE
  8
0
 10
189.969
 20
-1.35687
 11
190.324
 21
-1.54164
  0
LINE
  8
0
 10
190.324
 20
-1.54164
 11
190.646
 21
-1.77965
  0
LINE
  8
0
 10
190.646
 20
-1.77965
 11
190.926
 21
-2.06505
  0
LINE
  8
0
 10
190.926
 20
-2.06505
 11
191.159
 21
-2.39082
  0
LINE
  8
0
 10
191.159
 20
-2.39082
 11
191.337
 21
-2.74892
  0
LINE
  8
0
 10
191.337
 20
-2.74892
 11
191.458
 21
-3.13054
  0
LINE
  8
0
 10
191.458
 20
-3.13054
 11
191.517
 21
-3.52628
  0
LINE
  8
0
 10
191.517
 20
-3.52628
 11
191.513
 21
-3.92639
  0
LINE
  8
0
 10
191.513
 20
-3.92639
 11
191.447
 21
-4.32106
  0
LINE
  8
0
 10
191.447
 20
-4.32106
 11
191.32
 21
-4.70052
  0
LINE
  8
0
 10
191.32
 20
-4.70052
 11
191.135
 21
-5.05545
  0
LINE
  8
0
 10
191.135
 20
-5.05545
 11
190.897
 21
-5.37711
  0
LINE
  8
0
 10
190.897
 20
-5.37711
 11
190.612
 21
-5.65758
  0
LINE
  8
0
 10
190.612
 20
-5.65758
 11
190.286
 21
-5.88994
  0
LINE
  8
0
 10
190.286
 20
-5.88994
 11
189.928
 21
-6.06848
  0
LINE
  8
0
 10
189.928
 20
-6.06848
 11
189.546
 21
-6.1888
  0
LINE
  8
0
 10
189.546
 20
-6.1888
 11
189.151
 21
-6.24796
  0
LINE
  8
0
 10
189.151
 20
-6.24796
 11
188.751
 21
-6.24445
  0
LINE
  8
0
 10
124.563
 20
-10.8154
 11
124.429
 21
-10.7941
  0
LINE
  8
0
 10
124.429
 20
-10.7941
 11
124.297
 21
-10.7589
  0
LINE
  8
0
 10
124.297
 20
-10.7589
 11
124.17
 21
-10.7101
  0
LINE
  8
0
 10
124.17
 20
-10.7101
 11
124.049
 21
-10.6483
  0
LINE
  8
0
 10
124.049
 20
-10.6483
 11
123.935
 21
-10.5742
  0
LINE
  8
0
 10
123.935
 20
-10.5742
 11
123.829
 21
-10.4886
  0
LINE
  8
0
 10
123.829
 20
-10.4886
 11
123.733
 21
-10.3924
  0
LINE
  8
0
 10
123.733
 20
-10.3924
 11
123.647
 21
-10.2866
  0
LINE
  8
0
 10
123.647
 20
-10.2866
 11
123.573
 21
-10.1725
  0
LINE
  8
0
 10
123.573
 20
-10.1725
 11
123.511
 21
-10.0513
  0
LINE
  8
0
 10
123.511
 20
-10.0513
 11
123.463
 21
-9.92421
  0
LINE
  8
0
 10
123.463
 20
-9.92421
 11
123.427
 21
-9.79279
  0
LINE
  8
0
 10
123.427
 20
-9.79279
 11
123.406
 21
-9.65839
  0
LINE
  8
0
 10
123.406
 20
-9.65839
 11
123.399
 21
-9.52249
  0
LINE
  8
0
 10
123.399
 20
-9.52249
 11
123.406
 21
-9.38661
  0
LINE
  8
0
 10
123.406
 20
-9.38661
 11
123.427
 21
-9.25221
  0
LINE
  8
0
 10
123.427
 20
-9.25221
 11
123.463
 21
-9.12077
  0
LINE
  8
0
 10
123.463
 20
-9.12077
 11
123.511
 21
-8.99373
  0
LINE
  8
0
 10
123.511
 20
-8.99373
 11
123.573
 21
-8.8725
  0
LINE
  8
0
 10
123.573
 20
-8.8725
 11
123.647
 21
-8.75838
  0
LINE
  8
0
 10
123.647
 20
-8.75838
 11
123.733
 21
-8.65263
  0
LINE
  8
0
 10
123.733
 20
-8.65263
 11
123.829
 21
-8.55641
  0
LINE
  8
0
 10
123.829
 20
-8.55641
 11
123.935
 21
-8.47078
  0
LINE
  8
0
 10
123.935
 20
-8.47078
 11
124.049
 21
-8.39667
  0
LINE
  8
0
 10
124.049
 20
-8.39667
 11
124.17
 21
-8.33488
  0
LINE
  8
0
 10
124.17
 20
-8.33488
 11
124.297
 21
-8.28612
  0
LINE
  8
0
 10
124.297
 20
-8.28612
 11
124.429
 21
-8.2509
  0
LINE
  8
0
 10
124.429
 20
-8.2509
 11
124.563
 21
-8.22961
  0
LINE
  8
0
 10
124.563
 20
-8.22961
 11
124.699
 21
-8.2225
  0
LINE
  8
0
 10
124.699
 20
-8.2225
 11
124.835
 21
-8.22961
  0
LINE
  8
0
 10
124.835
 20
-8.22961
 11
124.969
 21
-8.2509
  0
LINE
  8
0
 10
124.969
 20
-8.2509
 11
125.101
 21
-8.28612
  0
LINE
  8
0
 10
125.101
 20
-8.28612
 11
125.228
 21
-8.33488
  0
LINE
  8
0
 10
125.228
 20
-8.33488
 11
125.349
 21
-8.39667
  0
LINE
  8
0
 10
125.349
 20
-8.39667
 11
125.463
 21
-8.47078
  0
LINE
  8
0
 10
125.463
 20
-8.47078
 11
125.569
 21
-8.55641
  0
LINE
  8
0
 10
125.569
 20
-8.55641
 11
125.665
 21
-8.65263
  0
LINE
  8
0
 10
125.665
 20
-8.65263
 11
125.751
 21
-8.75838
  0
LINE
  8
0
 10
125.751
 20
-8.75838
 11
125.825
 21
-8.8725
  0
LINE
  8
0
 10
125.825
 20
-8.8725
 11
125.887
 21
-8.99374
  0
LINE
  8
0
 10
125.887
 20
-8.99374
 11
125.935
 21
-9.12076
  0
LINE
  8
0
 10
125.935
 20
-9.12076
 11
125.97
 21
-9.25221
  0
LINE
  8
0
 10
125.97
 20
-9.25221
 11
125.992
 21
-9.38661
  0
LINE
  8
0
 10
125.992
 20
-9.38661
 11
125.999
 21
-9.52249
  0
LINE
  8
0
 10
125.999
 20
-9.52249
 11
125.992
 21
-9.65837
  0
LINE
  8
0
 10
125.992
 20
-9.65837
 11
125.97
 21
-9.79279
  0
LINE
  8
0
 10
125.97
 20
-9.79279
 11
125.935
 21
-9.92421
  0
LINE
  8
0
 10
125.935
 20
-9.92421
 11
125.886
 21
-10.0513
  0
LINE
  8
0
 10
125.886
 20
-10.0513
 11
125.825
 21
-10.1725
  0
LINE
  8
0
 10
125.825
 20
-10.1725
 11
125.751
 21
-10.2866
  0
LINE
  8
0
 10
125.751
 20
-10.2866
 11
125.665
 21
-10.3924
  0
LINE
  8
0
 10
125.665
 20
-10.3924
 11
125.569
 21
-10.4886
  0
LINE
  8
0
 10
125.569
 20
-10.4886
 11
125.463
 21
-10.5742
  0
LINE
  8
0
 10
125.463
 20
-10.5742
 11
125.349
 21
-10.6483
  0
LINE
  8
0
 10
125.349
 20
-10.6483
 11
125.228
 21
-10.7101
  0
LINE
  8
0
 10
125.228
 20
-10.7101
 11
125.101
 21
-10.7589
  0
LINE
  8
0
 10
125.101
 20
-10.7589
 11
124.969
 21
-10.7941
  0
LINE
  8
0
 10
124.969
 20
-10.7941
 11
124.835
 21
-10.8154
  0
LINE
  8
0
 10
124.835
 20
-10.8154
 11
124.699
 21
-10.8225
  0
LINE
  8
0
 10
124.699
 20
-10.8225
 11
124.563
 21
-10.8154
  0
LINE
  8
0
 10
88.063
 20
-10.8154
 11
87.9286
 21
-10.7941
  0
LINE
  8
0
 10
87.9286
 20
-10.7941
 11
87.7972
 21
-10.7589
  0
LINE
  8
0
 10
87.7972
 20
-10.7589
 11
87.6701
 21
-10.7101
  0
LINE
  8
0
 10
87.6701
 20
-10.7101
 11
87.5489
 21
-10.6483
  0
LINE
  8
0
 10
87.5489
 20
-10.6483
 11
87.4348
 21
-10.5742
  0
LINE
  8
0
 10
87.4348
 20
-10.5742
 11
87.329
 21
-10.4886
  0
LINE
  8
0
 10
87.329
 20
-10.4886
 11
87.2328
 21
-10.3924
  0
LINE
  8
0
 10
87.2328
 20
-10.3924
 11
87.1472
 21
-10.2866
  0
LINE
  8
0
 10
87.1472
 20
-10.2866
 11
87.073
 21
-10.1725
  0
LINE
  8
0
 10
87.073
 20
-10.1725
 11
87.0113
 21
-10.0513
  0
LINE
  8
0
 10
87.0113
 20
-10.0513
 11
86.9625
 21
-9.92421
  0
LINE
  8
0
 10
86.9625
 20
-9.92421
 11
86.9273
 21
-9.79279
  0
LINE
  8
0
 10
86.9273
 20
-9.79279
 11
86.906
 21
-9.65839
  0
LINE
  8
0
 10
86.906
 20
-9.65839
 11
86.8989
 21
-9.52249
  0
LINE
  8
0
 10
86.8989
 20
-9.52249
 11
86.906
 21
-9.38661
  0
LINE
  8
0
 10
86.906
 20
-9.38661
 11
86.9273
 21
-9.25221
  0
LINE
  8
0
 10
86.9273
 20
-9.25221
 11
86.9625
 21
-9.12077
  0
LINE
  8
0
 10
86.9625
 20
-9.12077
 11
87.0113
 21
-8.99374
  0
LINE
  8
0
 10
87.0113
 20
-8.99374
 11
87.073
 21
-8.87248
  0
LINE
  8
0
 10
87.073
 20
-8.87248
 11
87.1472
 21
-8.75838
  0
LINE
  8
0
 10
87.1472
 20
-8.75838
 11
87.2328
 21
-8.65263
  0
LINE
  8
0
 10
87.2328
 20
-8.65263
 11
87.329
 21
-8.55643
  0
LINE
  8
0
 10
87.329
 20
-8.55643
 11
87.4348
 21
-8.47078
  0
LINE
  8
0
 10
87.4348
 20
-8.47078
 11
87.5489
 21
-8.39667
  0
LINE
  8
0
 10
87.5489
 20
-8.39667
 11
87.6701
 21
-8.3349
  0
LINE
  8
0
 10
87.6701
 20
-8.3349
 11
87.7972
 21
-8.28613
  0
LINE
  8
0
 10
87.7972
 20
-8.28613
 11
87.9286
 21
-8.25092
  0
LINE
  8
0
 10
87.9286
 20
-8.25092
 11
88.063
 21
-8.22963
  0
LINE
  8
0
 10
88.063
 20
-8.22963
 11
88.1989
 21
-8.2225
  0
LINE
  8
0
 10
88.1989
 20
-8.2225
 11
88.3348
 21
-8.22963
  0
LINE
  8
0
 10
88.3348
 20
-8.22963
 11
88.4692
 21
-8.25092
  0
LINE
  8
0
 10
88.4692
 20
-8.25092
 11
88.6006
 21
-8.28615
  0
LINE
  8
0
 10
88.6006
 20
-8.28615
 11
88.7276
 21
-8.3349
  0
LINE
  8
0
 10
88.7276
 20
-8.3349
 11
88.8489
 21
-8.39667
  0
LINE
  8
0
 10
88.8489
 20
-8.39667
 11
88.963
 21
-8.47076
  0
LINE
  8
0
 10
88.963
 20
-8.47076
 11
89.0687
 21
-8.55641
  0
LINE
  8
0
 10
89.0687
 20
-8.55641
 11
89.165
 21
-8.65262
  0
LINE
  8
0
 10
89.165
 20
-8.65262
 11
89.2506
 21
-8.75836
  0
LINE
  8
0
 10
89.2506
 20
-8.75836
 11
89.3247
 21
-8.8725
  0
LINE
  8
0
 10
89.3247
 20
-8.8725
 11
89.3865
 21
-8.99373
  0
LINE
  8
0
 10
89.3865
 20
-8.99373
 11
89.4353
 21
-9.12077
  0
LINE
  8
0
 10
89.4353
 20
-9.12077
 11
89.4705
 21
-9.2522
  0
LINE
  8
0
 10
89.4705
 20
-9.2522
 11
89.4918
 21
-9.3866
  0
LINE
  8
0
 10
89.4918
 20
-9.3866
 11
89.4989
 21
-9.52249
  0
LINE
  8
0
 10
89.4989
 20
-9.52249
 11
89.4918
 21
-9.65839
  0
LINE
  8
0
 10
89.4918
 20
-9.65839
 11
89.4705
 21
-9.79277
  0
LINE
  8
0
 10
89.4705
 20
-9.79277
 11
89.4353
 21
-9.92421
  0
LINE
  8
0
 10
89.4353
 20
-9.92421
 11
89.3865
 21
-10.0513
  0
LINE
  8
0
 10
89.3865
 20
-10.0513
 11
89.3247
 21
-10.1725
  0
LINE
  8
0
 10
89.3247
 20
-10.1725
 11
89.2506
 21
-10.2866
  0
LINE
  8
0
 10
89.2506
 20
-10.2866
 11
89.165
 21
-10.3924
  0
LINE
  8
0
 10
89.165
 20
-10.3924
 11
89.0688
 21
-10.4886
  0
LINE
  8
0
 10
89.0688
 20
-10.4886
 11
88.963
 21
-10.5742
  0
LINE
  8
0
 10
88.963
 20
-10.5742
 11
88.8489
 21
-10.6483
  0
LINE
  8
0
 10
88.8489
 20
-10.6483
 11
88.7276
 21
-10.7101
  0
LINE
  8
0
 10
88.7276
 20
-10.7101
 11
88.6006
 21
-10.7589
  0
LINE
  8
0
 10
88.6006
 20
-10.7589
 11
88.4692
 21
-10.7941
  0
LINE
  8
0
 10
88.4692
 20
-10.7941
 11
88.3348
 21
-10.8154
  0
LINE
  8
0
 10
88.3348
 20
-10.8154
 11
88.1989
 21
-10.8225
  0
LINE
  8
0
 10
88.1989
 20
-10.8225
 11
88.063
 21
-10.8154
  0
LINE
  8
0
 10
175.298
 20
-19.1002
 11
174.903
 21
-19.0341
  0
LINE
  8
0
 10
174.903
 20
-19.0341
 11
174.524
 21
-18.9072
  0
LINE
  8
0
 10
174.524
 20
-18.9072
 11
174.169
 21
-18.7224
  0
LINE
  8
0
 10
174.169
 20
-18.7224
 11
173.847
 21
-18.4844
  0
LINE
  8
0
 10
173.847
 20
-18.4844
 11
173.567
 21
-18.199
  0
LINE
  8
0
 10
173.567
 20
-18.199
 11
173.334
 21
-17.8732
  0
LINE
  8
0
 10
173.334
 20
-17.8732
 11
173.156
 21
-17.5151
  0
LINE
  8
0
 10
173.156
 20
-17.5151
 11
173.035
 21
-17.1335
  0
LINE
  8
0
 10
173.035
 20
-17.1335
 11
172.976
 21
-16.7378
  0
LINE
  8
0
 10
172.976
 20
-16.7378
 11
172.98
 21
-16.3376
  0
LINE
  8
0
 10
172.98
 20
-16.3376
 11
173.046
 21
-15.943
  0
LINE
  8
0
 10
173.046
 20
-15.943
 11
173.173
 21
-15.5635
  0
LINE
  8
0
 10
173.173
 20
-15.5635
 11
173.357
 21
-15.2086
  0
LINE
  8
0
 10
173.357
 20
-15.2086
 11
173.595
 21
-14.8869
  0
LINE
  8
0
 10
173.595
 20
-14.8869
 11
173.881
 21
-14.6065
  0
LINE
  8
0
 10
173.881
 20
-14.6065
 11
174.207
 21
-14.3741
  0
LINE
  8
0
 10
174.207
 20
-14.3741
 11
174.565
 21
-14.1956
  0
LINE
  8
0
 10
174.565
 20
-14.1956
 11
174.946
 21
-14.0753
  0
LINE
  8
0
 10
174.946
 20
-14.0753
 11
175.342
 21
-14.0161
  0
LINE
  8
0
 10
175.342
 20
-14.0161
 11
175.742
 21
-14.0196
  0
LINE
  8
0
 10
175.742
 20
-14.0196
 11
176.137
 21
-14.0856
  0
LINE
  8
0
 10
176.137
 20
-14.0856
 11
176.516
 21
-14.2126
  0
LINE
  8
0
 10
176.516
 20
-14.2126
 11
176.871
 21
-14.3974
  0
LINE
  8
0
 10
176.871
 20
-14.3974
 11
177.193
 21
-14.6354
  0
LINE
  8
0
 10
177.193
 20
-14.6354
 11
177.473
 21
-14.9208
  0
LINE
  8
0
 10
177.473
 20
-14.9208
 11
177.706
 21
-15.2466
  0
LINE
  8
0
 10
177.706
 20
-15.2466
 11
177.884
 21
-15.6046
  0
LINE
  8
0
 10
177.884
 20
-15.6046
 11
178.005
 21
-15.9863
  0
LINE
  8
0
 10
178.005
 20
-15.9863
 11
178.064
 21
-16.382
  0
LINE
  8
0
 10
178.064
 20
-16.382
 11
178.06
 21
-16.7821
  0
LINE
  8
0
 10
178.06
 20
-16.7821
 11
177.994
 21
-17.1768
  0
LINE
  8
0
 10
177.994
 20
-17.1768
 11
177.867
 21
-17.5562
  0
LINE
  8
0
 10
177.867
 20
-17.5562
 11
177.682
 21
-17.9112
  0
LINE
  8
0
 10
177.682
 20
-17.9112
 11
177.444
 21
-18.2328
  0
LINE
  8
0
 10
177.444
 20
-18.2328
 11
177.159
 21
-18.5133
  0
LINE
  8
0
 10
177.159
 20
-18.5133
 11
176.833
 21
-18.7457
  0
LINE
  8
0
 10
176.833
 20
-18.7457
 11
176.475
 21
-18.9242
  0
LINE
  8
0
 10
176.475
 20
-18.9242
 11
176.094
 21
-19.0445
  0
LINE
  8
0
 10
176.094
 20
-19.0445
 11
175.698
 21
-19.1037
  0
LINE
  8
0
 10
175.698
 20
-19.1037
 11
175.298
 21
-19.1002
  0
LINE
  8
0
 10
124.894
 20
-20.9945
 11
124.532
 21
-20.8099
  0
LINE
  8
0
 10
124.532
 20
-20.8099
 11
124.244
 21
-20.5223
  0
LINE
  8
0
 10
124.244
 20
-20.5223
 11
124.06
 21
-20.1599
  0
LINE
  8
0
 10
124.06
 20
-20.1599
 11
123.996
 21
-19.7581
  0
LINE
  8
0
 10
123.996
 20
-19.7581
 11
124.059
 21
-19.3564
  0
LINE
  8
0
 10
124.059
 20
-19.3564
 11
124.244
 21
-18.994
  0
LINE
  8
0
 10
124.244
 20
-18.994
 11
124.532
 21
-18.7064
  0
LINE
  8
0
 10
124.532
 20
-18.7064
 11
124.894
 21
-18.5218
  0
LINE
  8
0
 10
124.894
 20
-18.5218
 11
125.296
 21
-18.4581
  0
LINE
  8
0
 10
125.296
 20
-18.4581
 11
125.698
 21
-18.5218
  0
LINE
  8
0
 10
125.698
 20
-18.5218
 11
126.06
 21
-18.7064
  0
LINE
  8
0
 10
126.06
 20
-18.7064
 11
126.348
 21
-18.994
  0
LINE
  8
0
 10
126.348
 20
-18.994
 11
126.532
 21
-19.3564
  0
LINE
  8
0
 10
126.532
 20
-19.3564
 11
126.596
 21
-19.7581
  0
LINE
  8
0
 10
126.596
 20
-19.7581
 11
126.532
 21
-20.1599
  0
LINE
  8
0
 10
126.532
 20
-20.1599
 11
126.348
 21
-20.5223
  0
LINE
  8
0
 10
126.348
 20
-20.5223
 11
126.06
 21
-20.8099
  0
LINE
  8
0
 10
126.06
 20
-20.8099
 11
125.698
 21
-20.9945
  0
LINE
  8
0
 10
125.698
 20
-20.9945
 11
125.296
 21
-21.0582
  0
LINE
  8
0
 10
125.296
 20
-21.0582
 11
124.894
 21
-20.9945
  0
LINE
  8
0
 10
66.8941
 20
-20.9945
 11
66.5318
 21
-20.8099
  0
LINE
  8
0
 10
66.5318
 20
-20.8099
 11
66.2442
 21
-20.5223
  0
LINE
  8
0
 10
66.2442
 20
-20.5223
 11
66.0595
 21
-20.1599
  0
LINE
  8
0
 10
66.0595
 20
-20.1599
 11
65.9959
 21
-19.7581
  0
LINE
  8
0
 10
65.9959
 20
-19.7581
 11
66.0595
 21
-19.3564
  0
LINE
  8
0
 10
66.0595
 20
-19.3564
 11
66.2442
 21
-18.994
  0
LINE
  8
0
 10
66.2442
 20
-18.994
 11
66.5318
 21
-18.7064
  0
LINE
  8
0
 10
66.5318
 20
-18.7064
 11
66.8941
 21
-18.5218
  0
LINE
  8
0
 10
66.8941
 20
-18.5218
 11
67.2959
 21
-18.4581
  0
LINE
  8
0
 10
67.2959
 20
-18.4581
 11
67.6976
 21
-18.5218
  0
LINE
  8
0
 10
67.6976
 20
-18.5218
 11
68.06
 21
-18.7064
  0
LINE
  8
0
 10
68.06
 20
-18.7064
 11
68.3476
 21
-18.994
  0
LINE
  8
0
 10
68.3476
 20
-18.994
 11
68.5322
 21
-19.3564
  0
LINE
  8
0
 10
68.5322
 20
-19.3564
 11
68.5959
 21
-19.7582
  0
LINE
  8
0
 10
68.5959
 20
-19.7582
 11
68.5322
 21
-20.1599
  0
LINE
  8
0
 10
68.5322
 20
-20.1599
 11
68.3476
 21
-20.5223
  0
LINE
  8
0
 10
68.3476
 20
-20.5223
 11
68.06
 21
-20.8099
  0
LINE
  8
0
 10
68.06
 20
-20.8099
 11
67.6976
 21
-20.9945
  0
LINE
  8
0
 10
67.6976
 20
-20.9945
 11
67.2959
 21
-21.0582
  0
LINE
  8
0
 10
67.2959
 20
-21.0582
 11
66.8941
 21
-20.9945
  0
LINE
  8
0
 10
136.81
 20
-27.9857
 11
136.415
 21
-27.9197
  0
LINE
  8
0
 10
136.415
 20
-27.9197
 11
136.036
 21
-27.7927
  0
LINE
  8
0
 10
136.036
 20
-27.7927
 11
135.681
 21
-27.608
  0
LINE
  8
0
 10
135.681
 20
-27.608
 11
135.359
 21
-27.37
  0
LINE
  8
0
 10
135.359
 20
-27.37
 11
135.079
 21
-27.0846
  0
LINE
  8
0
 10
135.079
 20
-27.0846
 11
134.847
 21
-26.7588
  0
LINE
  8
0
 10
134.847
 20
-26.7588
 11
134.668
 21
-26.4007
  0
LINE
  8
0
 10
134.668
 20
-26.4007
 11
134.548
 21
-26.0191
  0
LINE
  8
0
 10
134.548
 20
-26.0191
 11
134.489
 21
-25.6233
  0
LINE
  8
0
 10
134.489
 20
-25.6233
 11
134.492
 21
-25.2232
  0
LINE
  8
0
 10
134.492
 20
-25.2232
 11
134.558
 21
-24.8286
  0
LINE
  8
0
 10
134.558
 20
-24.8286
 11
134.685
 21
-24.4491
  0
LINE
  8
0
 10
134.685
 20
-24.4491
 11
134.87
 21
-24.0942
  0
LINE
  8
0
 10
134.87
 20
-24.0942
 11
135.108
 21
-23.7725
  0
LINE
  8
0
 10
135.108
 20
-23.7725
 11
135.393
 21
-23.492
  0
LINE
  8
0
 10
135.393
 20
-23.492
 11
135.719
 21
-23.2597
  0
LINE
  8
0
 10
135.719
 20
-23.2597
 11
136.077
 21
-23.0811
  0
LINE
  8
0
 10
136.077
 20
-23.0811
 11
136.459
 21
-22.9608
  0
LINE
  8
0
 10
136.459
 20
-22.9608
 11
136.854
 21
-22.9017
  0
LINE
  8
0
 10
136.854
 20
-22.9017
 11
137.255
 21
-22.9052
  0
LINE
  8
0
 10
137.255
 20
-22.9052
 11
137.649
 21
-22.9712
  0
LINE
  8
0
 10
137.649
 20
-22.9712
 11
138.029
 21
-23.0982
  0
LINE
  8
0
 10
138.029
 20
-23.0982
 11
138.384
 21
-23.2829
  0
LINE
  8
0
 10
138.384
 20
-23.2829
 11
138.705
 21
-23.521
  0
LINE
  8
0
 10
138.705
 20
-23.521
 11
138.986
 21
-23.8064
  0
LINE
  8
0
 10
138.986
 20
-23.8064
 11
139.218
 21
-24.1321
  0
LINE
  8
0
 10
139.218
 20
-24.1321
 11
139.397
 21
-24.4902
  0
LINE
  8
0
 10
139.397
 20
-24.4902
 11
139.517
 21
-24.8718
  0
LINE
  8
0
 10
139.517
 20
-24.8718
 11
139.576
 21
-25.2676
  0
LINE
  8
0
 10
139.576
 20
-25.2676
 11
139.573
 21
-25.6677
  0
LINE
  8
0
 10
139.573
 20
-25.6677
 11
139.507
 21
-26.0624
  0
LINE
  8
0
 10
139.507
 20
-26.0624
 11
139.38
 21
-26.4418
  0
LINE
  8
0
 10
139.38
 20
-26.4418
 11
139.195
 21
-26.7968
  0
LINE
  8
0
 10
139.195
 20
-26.7968
 11
138.957
 21
-27.1184
  0
LINE
  8
0
 10
138.957
 20
-27.1184
 11
138.671
 21
-27.3989
  0
LINE
  8
0
 10
138.671
 20
-27.3989
 11
138.346
 21
-27.6312
  0
LINE
  8
0
 10
138.346
 20
-27.6312
 11
137.988
 21
-27.8098
  0
LINE
  8
0
 10
137.988
 20
-27.8098
 11
137.606
 21
-27.9301
  0
LINE
  8
0
 10
137.606
 20
-27.9301
 11
137.21
 21
-27.9892
  0
LINE
  8
0
 10
137.21
 20
-27.9892
 11
136.81
 21
-27.9857
  0
LINE
  8
0
 10
142.926
 20
-49.3154
 11
141.611
 21
-49.0952
  0
LINE
  8
0
 10
141.611
 20
-49.0952
 11
140.346
 21
-48.672
  0
LINE
  8
0
 10
140.346
 20
-48.672
 11
139.163
 21
-48.0561
  0
LINE
  8
0
 10
139.163
 20
-48.0561
 11
138.091
 21
-47.2627
  0
LINE
  8
0
 10
138.091
 20
-47.2627
 11
137.156
 21
-46.3114
  0
LINE
  8
0
 10
137.156
 20
-46.3114
 11
136.381
 21
-45.2255
  0
LINE
  8
0
 10
136.381
 20
-45.2255
 11
135.786
 21
-44.0319
  0
LINE
  8
0
 10
135.786
 20
-44.0319
 11
135.385
 21
-42.7598
  0
LINE
  8
0
 10
135.385
 20
-42.7598
 11
135.188
 21
-41.4406
  0
LINE
  8
0
 10
135.188
 20
-41.4406
 11
135.2
 21
-40.1069
  0
LINE
  8
0
 10
135.2
 20
-40.1069
 11
135.42
 21
-38.7914
  0
LINE
  8
0
 10
135.42
 20
-38.7914
 11
135.843
 21
-37.5265
  0
LINE
  8
0
 10
135.843
 20
-37.5265
 11
136.459
 21
-36.3434
  0
LINE
  8
0
 10
136.459
 20
-36.3434
 11
137.252
 21
-35.2712
  0
LINE
  8
0
 10
137.252
 20
-35.2712
 11
138.203
 21
-34.3363
  0
LINE
  8
0
 10
138.203
 20
-34.3363
 11
139.289
 21
-33.5618
  0
LINE
  8
0
 10
139.289
 20
-33.5618
 11
140.483
 21
-32.9666
  0
LINE
  8
0
 10
140.483
 20
-32.9666
 11
141.755
 21
-32.5656
  0
LINE
  8
0
 10
141.755
 20
-32.5656
 11
159.294
 21
-28.5164
  0
LINE
  8
0
 10
159.294
 20
-28.5164
 11
160.613
 21
-28.3193
  0
LINE
  8
0
 10
160.613
 20
-28.3193
 11
161.947
 21
-28.3309
  0
LINE
  8
0
 10
161.947
 20
-28.3309
 11
163.262
 21
-28.5511
  0
LINE
  8
0
 10
163.262
 20
-28.5511
 11
164.527
 21
-28.9743
  0
LINE
  8
0
 10
164.527
 20
-28.9743
 11
165.71
 21
-29.5902
  0
LINE
  8
0
 10
165.71
 20
-29.5902
 11
166.782
 21
-30.3836
  0
LINE
  8
0
 10
166.782
 20
-30.3836
 11
167.717
 21
-31.3349
  0
LINE
  8
0
 10
167.717
 20
-31.3349
 11
168.492
 21
-32.4208
  0
LINE
  8
0
 10
168.492
 20
-32.4208
 11
169.087
 21
-33.6144
  0
LINE
  8
0
 10
169.087
 20
-33.6144
 11
169.488
 21
-34.8865
  0
LINE
  8
0
 10
169.488
 20
-34.8865
 11
169.685
 21
-36.2057
  0
LINE
  8
0
 10
169.685
 20
-36.2057
 11
169.673
 21
-37.5394
  0
LINE
  8
0
 10
169.673
 20
-37.5394
 11
169.453
 21
-38.8549
  0
LINE
  8
0
 10
169.453
 20
-38.8549
 11
169.03
 21
-40.1198
  0
LINE
  8
0
 10
169.03
 20
-40.1198
 11
168.414
 21
-41.3029
  0
LINE
  8
0
 10
168.414
 20
-41.3029
 11
167.621
 21
-42.3751
  0
LINE
  8
0
 10
167.621
 20
-42.3751
 11
166.67
 21
-43.31
  0
LINE
  8
0
 10
166.67
 20
-43.31
 11
165.584
 21
-44.0845
  0
LINE
  8
0
 10
165.584
 20
-44.0845
 11
164.39
 21
-44.6797
  0
LINE
  8
0
 10
164.39
 20
-44.6797
 11
163.118
 21
-45.0807
  0
LINE
  8
0
 10
163.118
 20
-45.0807
 11
145.579
 21
-49.1299
  0
LINE
  8
0
 10
145.579
 20
-49.1299
 11
144.26
 21
-49.327
  0
LINE
  8
0
 10
144.26
 20
-49.327
 11
142.926
 21
-49.3154
  0
LINE
  8
0
 10
106.698
 20
-42.4858
 11
106.001
 21
-42.3692
  0
LINE
  8
0
 10
106.001
 20
-42.3692
 11
105.331
 21
-42.1452
  0
LINE
  8
0
 10
105.331
 20
-42.1452
 11
104.705
 21
-41.8191
  0
LINE
  8
0
 10
104.705
 20
-41.8191
 11
104.137
 21
-41.3991
  0
LINE
  8
0
 10
104.137
 20
-41.3991
 11
103.643
 21
-40.8955
  0
LINE
  8
0
 10
103.643
 20
-40.8955
 11
103.232
 21
-40.3206
  0
LINE
  8
0
 10
103.232
 20
-40.3206
 11
102.917
 21
-39.6887
  0
LINE
  8
0
 10
102.917
 20
-39.6887
 11
102.705
 21
-39.0152
  0
LINE
  8
0
 10
102.705
 20
-39.0152
 11
102.601
 21
-38.3168
  0
LINE
  8
0
 10
102.601
 20
-38.3168
 11
102.607
 21
-37.6107
  0
LINE
  8
0
 10
102.607
 20
-37.6107
 11
102.723
 21
-36.9143
  0
LINE
  8
0
 10
102.723
 20
-36.9143
 11
102.947
 21
-36.2446
  0
LINE
  8
0
 10
102.947
 20
-36.2446
 11
103.274
 21
-35.6183
  0
LINE
  8
0
 10
103.274
 20
-35.6183
 11
103.694
 21
-35.0507
  0
LINE
  8
0
 10
103.694
 20
-35.0507
 11
104.197
 21
-34.5557
  0
LINE
  8
0
 10
104.197
 20
-34.5557
 11
104.772
 21
-34.1457
  0
LINE
  8
0
 10
104.772
 20
-34.1457
 11
105.404
 21
-33.8306
  0
LINE
  8
0
 10
105.404
 20
-33.8306
 11
106.077
 21
-33.6183
  0
LINE
  8
0
 10
106.077
 20
-33.6183
 11
106.776
 21
-33.5139
  0
LINE
  8
0
 10
106.776
 20
-33.5139
 11
107.482
 21
-33.5201
  0
LINE
  8
0
 10
107.482
 20
-33.5201
 11
108.178
 21
-33.6366
  0
LINE
  8
0
 10
108.178
 20
-33.6366
 11
108.848
 21
-33.8607
  0
LINE
  8
0
 10
108.848
 20
-33.8607
 11
109.474
 21
-34.1867
  0
LINE
  8
0
 10
109.474
 20
-34.1867
 11
110.042
 21
-34.6067
  0
LINE
  8
0
 10
110.042
 20
-34.6067
 11
110.537
 21
-35.1104
  0
LINE
  8
0
 10
110.537
 20
-35.1104
 11
110.947
 21
-35.6853
  0
LINE
  8
0
 10
110.947
 20
-35.6853
 11
111.262
 21
-36.3172
  0
LINE
  8
0
 10
111.262
 20
-36.3172
 11
111.474
 21
-36.9906
  0
LINE
  8
0
 10
111.474
 20
-36.9906
 11
111.579
 21
-37.689
  0
LINE
  8
0
 10
111.579
 20
-37.689
 11
111.573
 21
-38.3951
  0
LINE
  8
0
 10
111.573
 20
-38.3951
 11
111.456
 21
-39.0916
  0
LINE
  8
0
 10
111.456
 20
-39.0916
 11
111.232
 21
-39.7612
  0
LINE
  8
0
 10
111.232
 20
-39.7612
 11
110.906
 21
-40.3876
  0
LINE
  8
0
 10
110.906
 20
-40.3876
 11
110.486
 21
-40.9552
  0
LINE
  8
0
 10
110.486
 20
-40.9552
 11
109.982
 21
-41.4501
  0
LINE
  8
0
 10
109.982
 20
-41.4501
 11
109.407
 21
-41.8602
  0
LINE
  8
0
 10
109.407
 20
-41.8602
 11
108.775
 21
-42.1753
  0
LINE
  8
0
 10
108.775
 20
-42.1753
 11
108.102
 21
-42.3876
  0
LINE
  8
0
 10
108.102
 20
-42.3876
 11
107.404
 21
-42.492
  0
LINE
  8
0
 10
107.404
 20
-42.492
 11
106.698
 21
-42.4858
  0
LINE
  8
0
 10
190.795
 20
-46.6753
 11
190.099
 21
-46.5587
  0
LINE
  8
0
 10
190.099
 20
-46.5587
 11
189.429
 21
-46.3347
  0
LINE
  8
0
 10
189.429
 20
-46.3347
 11
188.803
 21
-46.0086
  0
LINE
  8
0
 10
188.803
 20
-46.0086
 11
188.235
 21
-45.5886
  0
LINE
  8
0
 10
188.235
 20
-45.5886
 11
187.74
 21
-45.0849
  0
LINE
  8
0
 10
187.74
 20
-45.0849
 11
187.33
 21
-44.5101
  0
LINE
  8
0
 10
187.33
 20
-44.5101
 11
187.015
 21
-43.8781
  0
LINE
  8
0
 10
187.015
 20
-43.8781
 11
186.803
 21
-43.2047
  0
LINE
  8
0
 10
186.803
 20
-43.2047
 11
186.699
 21
-42.5063
  0
LINE
  8
0
 10
186.699
 20
-42.5063
 11
186.705
 21
-41.8002
  0
LINE
  8
0
 10
186.705
 20
-41.8002
 11
186.821
 21
-41.1037
  0
LINE
  8
0
 10
186.821
 20
-41.1037
 11
187.045
 21
-40.4341
  0
LINE
  8
0
 10
187.045
 20
-40.4341
 11
187.371
 21
-39.8078
  0
LINE
  8
0
 10
187.371
 20
-39.8078
 11
187.791
 21
-39.2401
  0
LINE
  8
0
 10
187.791
 20
-39.2401
 11
188.295
 21
-38.7452
  0
LINE
  8
0
 10
188.295
 20
-38.7452
 11
188.87
 21
-38.3352
  0
LINE
  8
0
 10
188.87
 20
-38.3352
 11
189.502
 21
-38.0201
  0
LINE
  8
0
 10
189.502
 20
-38.0201
 11
190.175
 21
-37.8077
  0
LINE
  8
0
 10
190.175
 20
-37.8077
 11
190.874
 21
-37.7034
  0
LINE
  8
0
 10
190.874
 20
-37.7034
 11
191.58
 21
-37.7095
  0
LINE
  8
0
 10
191.58
 20
-37.7095
 11
192.276
 21
-37.8261
  0
LINE
  8
0
 10
192.276
 20
-37.8261
 11
192.946
 21
-38.0501
  0
LINE
  8
0
 10
192.946
 20
-38.0501
 11
193.572
 21
-38.3762
  0
LINE
  8
0
 10
193.572
 20
-38.3762
 11
194.14
 21
-38.7962
  0
LINE
  8
0
 10
194.14
 20
-38.7962
 11
194.635
 21
-39.2999
  0
LINE
  8
0
 10
194.635
 20
-39.2999
 11
195.045
 21
-39.8747
  0
LINE
  8
0
 10
195.045
 20
-39.8747
 11
195.36
 21
-40.5067
  0
LINE
  8
0
 10
195.36
 20
-40.5067
 11
195.572
 21
-41.1801
  0
LINE
  8
0
 10
195.572
 20
-41.1801
 11
195.677
 21
-41.8785
  0
LINE
  8
0
 10
195.677
 20
-41.8785
 11
195.67
 21
-42.5846
  0
LINE
  8
0
 10
195.67
 20
-42.5846
 11
195.554
 21
-43.2811
  0
LINE
  8
0
 10
195.554
 20
-43.2811
 11
195.33
 21
-43.9507
  0
LINE
  8
0
 10
195.33
 20
-43.9507
 11
195.004
 21
-44.577
  0
LINE
  8
0
 10
195.004
 20
-44.577
 11
194.584
 21
-45.1447
  0
LINE
  8
0
 10
194.584
 20
-45.1447
 11
194.08
 21
-45.6396
  0
LINE
  8
0
 10
194.08
 20
-45.6396
 11
193.505
 21
-46.0497
  0
LINE
  8
0
 10
193.505
 20
-46.0497
 11
192.873
 21
-46.3647
  0
LINE
  8
0
 10
192.873
 20
-46.3647
 11
192.2
 21
-46.5771
  0
LINE
  8
0
 10
192.2
 20
-46.5771
 11
191.501
 21
-46.6814
  0
LINE
  8
0
 10
191.501
 20
-46.6814
 11
190.795
 21
-46.6753
  0
LINE
  8
0
 10
124.894
 20
-43.9945
 11
124.532
 21
-43.8099
  0
LINE
  8
0
 10
124.532
 20
-43.8099
 11
124.244
 21
-43.5223
  0
LINE
  8
0
 10
124.244
 20
-43.5223
 11
124.06
 21
-43.1599
  0
LINE
  8
0
 10
124.06
 20
-43.1599
 11
123.996
 21
-42.7582
  0
LINE
  8
0
 10
123.996
 20
-42.7582
 11
124.059
 21
-42.3564
  0
LINE
  8
0
 10
124.059
 20
-42.3564
 11
124.244
 21
-41.994
  0
LINE
  8
0
 10
124.244
 20
-41.994
 11
124.532
 21
-41.7064
  0
LINE
  8
0
 10
124.532
 20
-41.7064
 11
124.894
 21
-41.5218
  0
LINE
  8
0
 10
124.894
 20
-41.5218
 11
125.296
 21
-41.4581
  0
LINE
  8
0
 10
125.296
 20
-41.4581
 11
125.698
 21
-41.5218
  0
LINE
  8
0
 10
125.698
 20
-41.5218
 11
126.06
 21
-41.7064
  0
LINE
  8
0
 10
126.06
 20
-41.7064
 11
126.348
 21
-41.994
  0
LINE
  8
0
 10
126.348
 20
-41.994
 11
126.532
 21
-42.3564
  0
LINE
  8
0
 10
126.532
 20
-42.3564
 11
126.596
 21
-42.7582
  0
LINE
  8
0
 10
126.596
 20
-42.7582
 11
126.532
 21
-43.1599
  0
LINE
  8
0
 10
126.532
 20
-43.1599
 11
126.348
 21
-43.5223
  0
LINE
  8
0
 10
126.348
 20
-43.5223
 11
126.06
 21
-43.8099
  0
LINE
  8
0
 10
126.06
 20
-43.8099
 11
125.698
 21
-43.9945
  0
LINE
  8
0
 10
125.698
 20
-43.9945
 11
125.296
 21
-44.0582
  0
LINE
  8
0
 10
125.296
 20
-44.0582
 11
124.894
 21
-43.9945
  0
LINE
  8
0
 10
66.8941
 20
-43.9945
 11
66.5318
 21
-43.8099
  0
LINE
  8
0
 10
66.5318
 20
-43.8099
 11
66.2442
 21
-43.5223
  0
LINE
  8
0
 10
66.2442
 20
-43.5223
 11
66.0595
 21
-43.1599
  0
LINE
  8
0
 10
66.0595
 20
-43.1599
 11
65.9959
 21
-42.7582
  0
LINE
  8
0
 10
65.9959
 20
-42.7582
 11
66.0595
 21
-42.3564
  0
LINE
  8
0
 10
66.0595
 20
-42.3564
 11
66.2441
 21
-41.994
  0
LINE
  8
0
 10
66.2441
 20
-41.994
 11
66.5318
 21
-41.7064
  0
LINE
  8
0
 10
66.5318
 20
-41.7064
 11
66.8941
 21
-41.5218
  0
LINE
  8
0
 10
66.8941
 20
-41.5218
 11
67.2959
 21
-41.4582
  0
LINE
  8
0
 10
67.2959
 20
-41.4582
 11
67.6976
 21
-41.5218
  0
LINE
  8
0
 10
67.6976
 20
-41.5218
 11
68.06
 21
-41.7064
  0
LINE
  8
0
 10
68.06
 20
-41.7064
 11
68.3476
 21
-41.994
  0
LINE
  8
0
 10
68.3476
 20
-41.994
 11
68.5322
 21
-42.3564
  0
LINE
  8
0
 10
68.5322
 20
-42.3564
 11
68.5959
 21
-42.7581
  0
LINE
  8
0
 10
68.5959
 20
-42.7581
 11
68.5322
 21
-43.1599
  0
LINE
  8
0
 10
68.5322
 20
-43.1599
 11
68.3476
 21
-43.5223
  0
LINE
  8
0
 10
68.3476
 20
-43.5223
 11
68.06
 21
-43.8099
  0
LINE
  8
0
 10
68.06
 20
-43.8099
 11
67.6976
 21
-43.9945
  0
LINE
  8
0
 10
67.6976
 20
-43.9945
 11
67.2959
 21
-44.0582
  0
LINE
  8
0
 10
67.2959
 20
-44.0582
 11
66.8941
 21
-43.9945
  0
LINE
  8
0
 10
128.687
 20
-50.3831
 11
128.687
 21
-47.2081
  0
LINE
  8
0
 10
128.687
 20
-47.2081
 11
136.187
 21
-47.2081
  0
LINE
  8
0
 10
136.187
 20
-47.2081
 11
136.187
 21
-50.3831
  0
LINE
  8
0
 10
136.187
 20
-50.3831
 11
128.687
 21
-50.3831
  0
LINE
  8
0
 10
74.6866
 20
-50.3831
 11
74.6867
 21
-47.2081
  0
LINE
  8
0
 10
74.6867
 20
-47.2081
 11
93.6867
 21
-47.2081
  0
LINE
  8
0
 10
93.6867
 20
-47.2081
 11
93.6867
 21
-50.3831
  0
LINE
  8
0
 10
93.6867
 20
-50.3831
 11
74.6866
 21
-50.3831
  0
LINE
  8
0
 10
41.0453
 20
-54.9452
 11
42.0791
 21
-54.7815
  0
LINE
  8
0
 10
42.0791
 20
-54.7815
 11
43.0901
 21
-54.5106
  0
LINE
  8
0
 10
43.0901
 20
-54.5106
 11
44.0674
 21
-54.1355
  0
LINE
  8
0
 10
44.0674
 20
-54.1355
 11
45
 21
-53.6602
  0
LINE
  8
0
 10
45
 20
-53.6602
 11
45.8778
 21
-53.0902
  0
LINE
  8
0
 10
45.8778
 20
-53.0902
 11
46.6913
 21
-52.4314
  0
LINE
  8
0
 10
46.6913
 20
-52.4314
 11
47.4314
 21
-51.6913
  0
LINE
  8
0
 10
47.4314
 20
-51.6913
 11
48.0901
 21
-50.8778
  0
LINE
  8
0
 10
48.0901
 20
-50.8778
 11
48.6602
 21
-50
  0
LINE
  8
0
 10
48.6602
 20
-50
 11
49.1354
 21
-49.0674
  0
LINE
  8
0
 10
49.1354
 20
-49.0674
 11
49.5106
 21
-48.0902
  0
LINE
  8
0
 10
49.5106
 20
-48.0902
 11
49.7814
 21
-47.0791
  0
LINE
  8
0
 10
49.7814
 20
-47.0791
 11
49.9452
 21
-46.0453
  0
LINE
  8
0
 10
49.9452
 20
-46.0453
 11
50
 21
-45
  0
LINE
  8
0
 10
50
 20
-45
 11
50
 21
-6.34322
  0
LINE
  8
0
 10
50
 20
-6.34322
 11
49.4658
 21
-6.38057
  0
LINE
  8
0
 10
49.4658
 20
-6.38057
 11
46.3275
 21
-6.27098
  0
LINE
  8
0
 10
46.3275
 20
-6.27098
 11
43.2179
 21
-5.83395
  0
LINE
  8
0
 10
43.2179
 20
-5.83395
 11
40.171
 21
-5.07428
  0
LINE
  8
0
 10
40.171
 20
-5.07428
 11
37.2203
 21
-4.00029
  0
LINE
  8
0
 10
37.2203
 20
-4.00029
 11
34.3979
 21
-2.62373
  0
LINE
  8
0
 10
34.3979
 20
-2.62373
 11
31.7349
 21
-0.959702
  0
LINE
  8
0
 10
31.7349
 20
-0.959702
 11
29.2604
 21
0.973557
  0
LINE
  8
0
 10
29.2604
 20
0.973557
 11
27.0016
 21
3.15491
  0
LINE
  8
0
 10
27.0016
 20
3.15491
 11
24.9831
 21
5.56039
  0
LINE
  8
0
 10
24.9831
 20
5.56039
 11
23.2272
 21
8.16368
  0
LINE
  8
0
 10
23.2272
 20
8.16368
 11
21.753
 21
10.9363
  0
LINE
  8
0
 10
21.753
 20
10.9363
 11
20.5766
 21
13.8478
  0
LINE
  8
0
 10
20.5766
 20
13.8478
 11
19.7111
 21
16.8663
  0
LINE
  8
0
 10
19.7111
 20
16.8663
 11
19.6989
 21
16.9357
  0
LINE
  8
0
 10
19.6989
 20
16.9357
 11
19.5417
 21
16.8722
  0
LINE
  8
0
 10
19.5417
 20
16.8722
 11
18.7367
 21
16.6414
  0
LINE
  8
0
 10
18.7367
 20
16.6414
 11
17.9121
 21
16.4959
  0
LINE
  8
0
 10
17.9121
 20
16.4959
 11
17.0767
 21
16.4375
  0
LINE
  8
0
 10
17.0767
 20
16.4375
 11
16.2399
 21
16.4668
  0
LINE
  8
0
 10
16.2399
 20
16.4668
 11
15.4106
 21
16.5833
  0
LINE
  8
0
 10
15.4106
 20
16.5833
 11
14.5981
 21
16.7859
  0
LINE
  8
0
 10
14.5981
 20
16.7859
 11
13.8113
 21
17.0723
  0
LINE
  8
0
 10
13.8113
 20
17.0723
 11
13.0586
 21
17.4394
  0
LINE
  8
0
 10
13.0586
 20
17.4394
 11
12.3485
 21
17.8831
  0
LINE
  8
0
 10
12.3485
 20
17.8831
 11
11.6886
 21
18.3986
  0
LINE
  8
0
 10
11.6886
 20
18.3986
 11
11.0863
 21
18.9803
  0
LINE
  8
0
 10
11.0863
 20
18.9803
 11
10.548
 21
19.6218
  0
LINE
  8
0
 10
10.548
 20
19.6218
 11
10.0798
 21
20.316
  0
LINE
  8
0
 10
10.0798
 20
20.316
 11
9.68663
 21
21.0554
  0
LINE
  8
0
 10
9.68663
 20
21.0554
 11
9.37296
 21
21.8318
  0
LINE
  8
0
 10
9.37296
 20
21.8318
 11
9.14215
 21
22.6367
  0
LINE
  8
0
 10
9.14215
 20
22.6367
 11
8.99673
 21
23.4614
  0
LINE
  8
0
 10
8.99673
 20
23.4614
 11
8.93832
 21
24.2967
  0
LINE
  8
0
 10
8.93832
 20
24.2967
 11
8.96754
 21
25.1335
  0
LINE
  8
0
 10
8.96754
 20
25.1335
 11
9.08409
 21
25.9628
  0
LINE
  8
0
 10
9.08409
 20
25.9628
 11
9.28667
 21
26.7753
  0
LINE
  8
0
 10
9.28667
 20
26.7753
 11
9.57307
 21
27.5621
  0
LINE
  8
0
 10
9.57307
 20
27.5621
 11
9.94016
 21
28.3148
  0
LINE
  8
0
 10
9.94016
 20
28.3148
 11
10.3839
 21
29.0249
  0
LINE
  8
0
 10
10.3839
 20
29.0249
 11
10.8994
 21
29.6848
  0
LINE
  8
0
 10
10.8994
 20
29.6848
 11
11.4811
 21
30.2871
  0
LINE
  8
0
 10
11.4811
 20
30.2871
 11
12.1226
 21
30.8254
  0
LINE
  8
0
 10
12.1226
 20
30.8254
 11
12.8168
 21
31.2936
  0
LINE
  8
0
 10
12.8168
 20
31.2936
 11
13.5562
 21
31.6868
  0
LINE
  8
0
 10
13.5562
 20
31.6868
 11
14.3326
 21
32.0005
  0
LINE
  8
0
 10
14.3326
 20
32.0005
 11
15.1375
 21
32.2313
  0
LINE
  8
0
 10
15.1375
 20
32.2313
 11
15.9622
 21
32.3767
  0
LINE
  8
0
 10
15.9622
 20
32.3767
 11
16.7975
 21
32.4351
  0
LINE
  8
0
 10
16.7975
 20
32.4351
 11
17.6344
 21
32.4059
  0
LINE
  8
0
 10
17.6344
 20
32.4059
 11
18.4636
 21
32.2893
  0
LINE
  8
0
 10
18.4636
 20
32.2893
 11
19.2761
 21
32.0867
  0
LINE
  8
0
 10
19.2761
 20
32.0867
 11
20.063
 21
31.8003
  0
LINE
  8
0
 10
20.063
 20
31.8003
 11
20.1022
 21
31.7812
  0
LINE
  8
0
 10
20.1022
 20
31.7812
 11
20.253
 21
32.386
  0
LINE
  8
0
 10
20.253
 20
32.386
 11
21.327
 21
35.3368
  0
LINE
  8
0
 10
21.327
 20
35.3368
 11
22.7036
 21
38.1591
  0
LINE
  8
0
 10
22.7036
 20
38.1591
 11
24.3676
 21
40.8221
  0
LINE
  8
0
 10
24.3676
 20
40.8221
 11
26.3009
 21
43.2966
  0
LINE
  8
0
 10
26.3009
 20
43.2966
 11
28.4822
 21
45.5555
  0
LINE
  8
0
 10
28.4822
 20
45.5555
 11
28.9127
 21
45.9167
  0
LINE
  8
0
 10
28.9127
 20
45.9167
 11
28.599
 21
46.5067
  0
LINE
  8
0
 10
28.599
 20
46.5067
 11
28.0109
 21
47.9624
  0
LINE
  8
0
 10
28.0109
 20
47.9624
 11
27.5781
 21
49.4717
  0
LINE
  8
0
 10
27.5781
 20
49.4717
 11
27.3055
 21
51.0179
  0
LINE
  8
0
 10
27.3055
 20
51.0179
 11
27.1959
 21
52.5842
  0
LINE
  8
0
 10
27.1959
 20
52.5842
 11
27.2507
 21
54.1533
  0
LINE
  8
0
 10
27.2507
 20
54.1533
 11
27.3697
 21
55
  0
LINE
  8
0
 10
27.3697
 20
55
 11
-60
 21
55
  0
LINE
  8
0
 10
-60
 20
55
 11
-61.0453
 21
54.9452
  0
LINE
  8
0
 10
-61.0453
 20
54.9452
 11
-62.0791
 21
54.7815
  0
LINE
  8
0
 10
-62.0791
 20
54.7815
 11
-63.0901
 21
54.5106
  0
LINE
  8
0
 10
-63.0901
 20
54.5106
 11
-64.0674
 21
54.1355
  0
LINE
  8
0
 10
-64.0674
 20
54.1355
 11
-65
 21
53.6602
  0
LINE
  8
0
 10
-65
 20
53.6602
 11
-65.8779
 21
53.0902
  0
LINE
  8
0
 10
-65.8779
 20
53.0902
 11
-66.6913
 21
52.4314
  0
LINE
  8
0
 10
-66.6913
 20
52.4314
 11
-67.4314
 21
51.6913
  0
LINE
  8
0
 10
-67.4314
 20
51.6913
 11
-68.0902
 21
50.8778
  0
LINE
  8
0
 10
-68.0902
 20
50.8778
 11
-68.6602
 21
50
  0
LINE
  8
0
 10
-68.6602
 20
50
 11
-69.1354
 21
49.0674
  0
LINE
  8
0
 10
-69.1354
 20
49.0674
 11
-69.5105
 21
48.0902
  0
LINE
  8
0
 10
-69.5105
 20
48.0902
 11
-69.7815
 21
47.0791
  0
LINE
  8
0
 10
-69.7815
 20
47.0791
 11
-69.9452
 21
46.0453
  0
LINE
  8
0
 10
-69.9452
 20
46.0453
 11
-70
 21
45
  0
LINE
  8
0
 10
-70
 20
45
 11
-70
 21
-45
  0
LINE
  8
0
 10
-70
 20
-45
 11
-69.9452
 21
-46.0453
  0
LINE
  8
0
 10
-69.9452
 20
-46.0453
 11
-69.7815
 21
-47.0791
  0
LINE
  8
0
 10
-69.7815
 20
-47.0791
 11
-69.5106
 21
-48.0902
  0
LINE
  8
0
 10
-69.5106
 20
-48.0902
 11
-69.1355
 21
-49.0674
  0
LINE
  8
0
 10
-69.1355
 20
-49.0674
 11
-68.6602
 21
-50
  0
LINE
  8
0
 10
-68.6602
 20
-50
 11
-68.0901
 21
-50.8778
  0
LINE
  8
0
 10
-68.0901
 20
-50.8778
 11
-67.4314
 21
-51.6913
  0
LINE
  8
0
 10
-67.4314
 20
-51.6913
 11
-66.6913
 21
-52.4314
  0
LINE
  8
0
 10
-66.6913
 20
-52.4314
 11
-65.8778
 21
-53.0901
  0
LINE
  8
0
 10
-65.8778
 20
-53.0901
 11
-65
 21
-53.6602
  0
LINE
  8
0
 10
-65
 20
-53.6602
 11
-64.0674
 21
-54.1354
  0
LINE
  8
0
 10
-64.0674
 20
-54.1354
 11
-63.0902
 21
-54.5105
  0
LINE
  8
0
 10
-63.0902
 20
-54.5105
 11
-62.0791
 21
-54.7815
  0
LINE
  8
0
 10
-62.0791
 20
-54.7815
 11
-61.0453
 21
-54.9452
  0
LINE
  8
0
 10
-61.0453
 20
-54.9452
 11
-60
 21
-55
  0
LINE
  8
0
 10
-60
 20
-55
 11
40
 21
-55
  0
LINE
  8
0
 10
40
 20
-55
 11
41.0453
 21
-54.9452
  0
LINE
  8
0
 10
-34.0739
 20
46.6065
 11
-34.0739
 21
49.7815
  0
LINE
  8
0
 10
-34.0739
 20
49.7815
 11
-3.57385
 21
49.7815
  0
LINE
  8
0
 10
-3.57385
 20
49.7815
 11
-3.57385
 21
46.6065
  0
LINE
  8
0
 10
-3.57385
 20
46.6065
 11
-34.0739
 21
46.6065
  0
LINE
  8
0
 10
-66.8715
 20
40.2699
 11
-63.6965
 21
40.2699
  0
LINE
  8
0
 10
-63.6965
 20
40.2699
 11
-63.6965
 21
28.2699
  0
LINE
  8
0
 10
-63.6965
 20
28.2699
 11
-66.8715
 21
28.2699
  0
LINE
  8
0
 10
-66.8715
 20
28.2699
 11
-66.8715
 21
40.2699
  0
LINE
  8
0
 10
-11.7763
 20
32.8645
 11
-12.1391
 21
32.9155
  0
LINE
  8
0
 10
-12.1391
 20
32.9155
 11
-12.4945
 21
33.0041
  0
LINE
  8
0
 10
-12.4945
 20
33.0041
 11
-12.8388
 21
33.1294
  0
LINE
  8
0
 10
-12.8388
 20
33.1294
 11
-13.1681
 21
33.29
  0
LINE
  8
0
 10
-13.1681
 20
33.29
 11
-13.4787
 21
33.4842
  0
LINE
  8
0
 10
-13.4787
 20
33.4842
 11
-13.7674
 21
33.7097
  0
LINE
  8
0
 10
-13.7674
 20
33.7097
 11
-14.031
 21
33.9642
  0
LINE
  8
0
 10
-14.031
 20
33.9642
 11
-14.2665
 21
34.2448
  0
LINE
  8
0
 10
-14.2665
 20
34.2448
 11
-14.4713
 21
34.5486
  0
LINE
  8
0
 10
-14.4713
 20
34.5486
 11
-14.6433
 21
34.872
  0
LINE
  8
0
 10
-14.6433
 20
34.872
 11
-14.7805
 21
35.2117
  0
LINE
  8
0
 10
-14.7805
 20
35.2117
 11
-14.8815
 21
35.5639
  0
LINE
  8
0
 10
-14.8815
 20
35.5639
 11
-14.9451
 21
35.9247
  0
LINE
  8
0
 10
-14.9451
 20
35.9247
 11
-14.9707
 21
36.2901
  0
LINE
  8
0
 10
-14.9707
 20
36.2901
 11
-14.9579
 21
36.6562
  0
LINE
  8
0
 10
-14.9579
 20
36.6562
 11
-14.9069
 21
37.019
  0
LINE
  8
0
 10
-14.9069
 20
37.019
 11
-14.8183
 21
37.3745
  0
LINE
  8
0
 10
-14.8183
 20
37.3745
 11
-14.693
 21
37.7188
  0
LINE
  8
0
 10
-14.693
 20
37.7188
 11
-14.5324
 21
38.048
  0
LINE
  8
0
 10
-14.5324
 20
38.048
 11
-14.3383
 21
38.3587
  0
LINE
  8
0
 10
-14.3383
 20
38.3587
 11
-14.1127
 21
38.6474
  0
LINE
  8
0
 10
-14.1127
 20
38.6474
 11
-13.8582
 21
38.9109
  0
LINE
  8
0
 10
-13.8582
 20
38.9109
 11
-13.5776
 21
39.1464
  0
LINE
  8
0
 10
-13.5776
 20
39.1464
 11
-13.2739
 21
39.3513
  0
LINE
  8
0
 10
-13.2739
 20
39.3513
 11
-12.9504
 21
39.5233
  0
LINE
  8
0
 10
-12.9504
 20
39.5233
 11
-12.6107
 21
39.6605
  0
LINE
  8
0
 10
-12.6107
 20
39.6605
 11
-12.2586
 21
39.7615
  0
LINE
  8
0
 10
-12.2586
 20
39.7615
 11
-11.8978
 21
39.8251
  0
LINE
  8
0
 10
-11.8978
 20
39.8251
 11
-11.5323
 21
39.8507
  0
LINE
  8
0
 10
-11.5323
 20
39.8507
 11
-11.1662
 21
39.8379
  0
LINE
  8
0
 10
-11.1662
 20
39.8379
 11
-10.8034
 21
39.7869
  0
LINE
  8
0
 10
-10.8034
 20
39.7869
 11
-10.4479
 21
39.6983
  0
LINE
  8
0
 10
-10.4479
 20
39.6983
 11
-10.1037
 21
39.573
  0
LINE
  8
0
 10
-10.1037
 20
39.573
 11
-9.7744
 21
39.4124
  0
LINE
  8
0
 10
-9.7744
 20
39.4124
 11
-9.46371
 21
39.2182
  0
LINE
  8
0
 10
-9.46371
 20
39.2182
 11
-9.17502
 21
38.9927
  0
LINE
  8
0
 10
-9.17502
 20
38.9927
 11
-8.91151
 21
38.7382
  0
LINE
  8
0
 10
-8.91151
 20
38.7382
 11
-8.67603
 21
38.4576
  0
LINE
  8
0
 10
-8.67603
 20
38.4576
 11
-8.47116
 21
38.1538
  0
LINE
  8
0
 10
-8.47116
 20
38.1538
 11
-8.29918
 21
37.8304
  0
LINE
  8
0
 10
-8.29918
 20
37.8304
 11
-8.16193
 21
37.4907
  0
LINE
  8
0
 10
-8.16193
 20
37.4907
 11
-8.06094
 21
37.1385
  0
LINE
  8
0
 10
-8.06094
 20
37.1385
 11
-7.99733
 21
36.7777
  0
LINE
  8
0
 10
-7.99733
 20
36.7777
 11
-7.97179
 21
36.4123
  0
LINE
  8
0
 10
-7.97179
 20
36.4123
 11
-7.98457
 21
36.0462
  0
LINE
  8
0
 10
-7.98457
 20
36.0462
 11
-8.03555
 21
35.6834
  0
LINE
  8
0
 10
-8.03555
 20
35.6834
 11
-8.12418
 21
35.3279
  0
LINE
  8
0
 10
-8.12418
 20
35.3279
 11
-8.24947
 21
34.9836
  0
LINE
  8
0
 10
-8.24947
 20
34.9836
 11
-8.41006
 21
34.6544
  0
LINE
  8
0
 10
-8.41006
 20
34.6544
 11
-8.6042
 21
34.3437
  0
LINE
  8
0
 10
-8.6042
 20
34.3437
 11
-8.82976
 21
34.055
  0
LINE
  8
0
 10
-8.82976
 20
34.055
 11
-9.08423
 21
33.7915
  0
LINE
  8
0
 10
-9.08423
 20
33.7915
 11
-9.36488
 21
33.556
  0
LINE
  8
0
 10
-9.36488
 20
33.556
 11
-9.66859
 21
33.3511
  0
LINE
  8
0
 10
-9.66859
 20
33.3511
 11
-9.99208
 21
33.1791
  0
LINE
  8
0
 10
-9.99208
 20
33.1791
 11
-10.3317
 21
33.0419
  0
LINE
  8
0
 10
-10.3317
 20
33.0419
 11
-10.6839
 21
32.9409
  0
LINE
  8
0
 10
-10.6839
 20
32.9409
 11
-11.0447
 21
32.8773
  0
LINE
  8
0
 10
-11.0447
 20
32.8773
 11
-11.4101
 21
32.8517
  0
LINE
  8
0
 10
-11.4101
 20
32.8517
 11
-11.7763
 21
32.8645
  0
LINE
  8
0
 10
-66.8715
 20
-11.7301
 11
-66.8715
 21
8.26993
  0
LINE
  8
0
 10
-66.8715
 20
8.26993
 11
-63.6965
 21
8.26993
  0
LINE
  8
0
 10
-63.6965
 20
8.26993
 11
-63.6965
 21
-11.7301
  0
LINE
  8
0
 10
-63.6965
 20
-11.7301
 11
-66.8715
 21
-11.7301
  0
LINE
  8
0
 10
9.64082
 20
-9.01192
 11
9.42834
 21
-8.98204
  0
LINE
  8
0
 10
9.42834
 20
-8.98204
 11
9.22014
 21
-8.93013
  0
LINE
  8
0
 10
9.22014
 20
-8.93013
 11
9.01849
 21
-8.85675
  0
LINE
  8
0
 10
9.01849
 20
-8.85675
 11
8.82565
 21
-8.76268
  0
LINE
  8
0
 10
8.82565
 20
-8.76268
 11
8.64368
 21
-8.64897
  0
LINE
  8
0
 10
8.64368
 20
-8.64897
 11
8.47458
 21
-8.51686
  0
LINE
  8
0
 10
8.47458
 20
-8.51686
 11
8.32022
 21
-8.36781
  0
LINE
  8
0
 10
8.32022
 20
-8.36781
 11
8.1823
 21
-8.20343
  0
LINE
  8
0
 10
8.1823
 20
-8.20343
 11
8.0623
 21
-8.02554
  0
LINE
  8
0
 10
8.0623
 20
-8.02554
 11
7.96158
 21
-7.83607
  0
LINE
  8
0
 10
7.96158
 20
-7.83607
 11
7.8812
 21
-7.63713
  0
LINE
  8
0
 10
7.8812
 20
-7.63713
 11
7.82205
 21
-7.43085
  0
LINE
  8
0
 10
7.82205
 20
-7.43085
 11
7.78479
 21
-7.21954
  0
LINE
  8
0
 10
7.78479
 20
-7.21954
 11
7.76982
 21
-7.00549
  0
LINE
  8
0
 10
7.76982
 20
-7.00549
 11
7.7773
 21
-6.79103
  0
LINE
  8
0
 10
7.7773
 20
-6.79103
 11
7.80717
 21
-6.57855
  0
LINE
  8
0
 10
7.80717
 20
-6.57855
 11
7.85909
 21
-6.37035
  0
LINE
  8
0
 10
7.85909
 20
-6.37035
 11
7.93246
 21
-6.1687
  0
LINE
  8
0
 10
7.93246
 20
-6.1687
 11
8.02654
 21
-5.97586
  0
LINE
  8
0
 10
8.02654
 20
-5.97586
 11
8.14024
 21
-5.79388
  0
LINE
  8
0
 10
8.14024
 20
-5.79388
 11
8.27234
 21
-5.62479
  0
LINE
  8
0
 10
8.27234
 20
-5.62479
 11
8.4214
 21
-5.47043
  0
LINE
  8
0
 10
8.4214
 20
-5.47043
 11
8.58578
 21
-5.3325
  0
LINE
  8
0
 10
8.58578
 20
-5.3325
 11
8.76367
 21
-5.21251
  0
LINE
  8
0
 10
8.76367
 20
-5.21251
 11
8.95314
 21
-5.11179
  0
LINE
  8
0
 10
8.95314
 20
-5.11179
 11
9.15208
 21
-5.0314
  0
LINE
  8
0
 10
9.15208
 20
-5.0314
 11
9.35837
 21
-4.97226
  0
LINE
  8
0
 10
9.35837
 20
-4.97226
 11
9.56967
 21
-4.935
  0
LINE
  8
0
 10
9.56967
 20
-4.935
 11
9.78372
 21
-4.92003
  0
LINE
  8
0
 10
9.78372
 20
-4.92003
 11
9.99818
 21
-4.92751
  0
LINE
  8
0
 10
9.99818
 20
-4.92751
 11
10.2107
 21
-4.95738
  0
LINE
  8
0
 10
10.2107
 20
-4.95738
 11
10.4189
 21
-5.00928
  0
LINE
  8
0
 10
10.4189
 20
-5.00928
 11
10.6205
 21
-5.08267
  0
LINE
  8
0
 10
10.6205
 20
-5.08267
 11
10.8134
 21
-5.17674
  0
LINE
  8
0
 10
10.8134
 20
-5.17674
 11
10.9953
 21
-5.29045
  0
LINE
  8
0
 10
10.9953
 20
-5.29045
 11
11.1644
 21
-5.42255
  0
LINE
  8
0
 10
11.1644
 20
-5.42255
 11
11.3188
 21
-5.57161
  0
LINE
  8
0
 10
11.3188
 20
-5.57161
 11
11.4567
 21
-5.73599
  0
LINE
  8
0
 10
11.4567
 20
-5.73599
 11
11.5767
 21
-5.91388
  0
LINE
  8
0
 10
11.5767
 20
-5.91388
 11
11.6774
 21
-6.10335
  0
LINE
  8
0
 10
11.6774
 20
-6.10335
 11
11.7578
 21
-6.30229
  0
LINE
  8
0
 10
11.7578
 20
-6.30229
 11
11.817
 21
-6.50856
  0
LINE
  8
0
 10
11.817
 20
-6.50856
 11
11.8542
 21
-6.71988
  0
LINE
  8
0
 10
11.8542
 20
-6.71988
 11
11.8692
 21
-6.93393
  0
LINE
  8
0
 10
11.8692
 20
-6.93393
 11
11.8617
 21
-7.14838
  0
LINE
  8
0
 10
11.8617
 20
-7.14838
 11
11.8318
 21
-7.36087
  0
LINE
  8
0
 10
11.8318
 20
-7.36087
 11
11.7799
 21
-7.56908
  0
LINE
  8
0
 10
11.7799
 20
-7.56908
 11
11.7065
 21
-7.77071
  0
LINE
  8
0
 10
11.7065
 20
-7.77071
 11
11.6125
 21
-7.96356
  0
LINE
  8
0
 10
11.6125
 20
-7.96356
 11
11.4988
 21
-8.14554
  0
LINE
  8
0
 10
11.4988
 20
-8.14554
 11
11.3667
 21
-8.31464
  0
LINE
  8
0
 10
11.3667
 20
-8.31464
 11
11.2176
 21
-8.46898
  0
LINE
  8
0
 10
11.2176
 20
-8.46898
 11
11.0532
 21
-8.6069
  0
LINE
  8
0
 10
11.0532
 20
-8.6069
 11
10.8753
 21
-8.7269
  0
LINE
  8
0
 10
10.8753
 20
-8.7269
 11
10.6859
 21
-8.82764
  0
LINE
  8
0
 10
10.6859
 20
-8.82764
 11
10.4869
 21
-8.90802
  0
LINE
  8
0
 10
10.4869
 20
-8.90802
 11
10.2807
 21
-8.96716
  0
LINE
  8
0
 10
10.2807
 20
-8.96716
 11
10.0693
 21
-9.00443
  0
LINE
  8
0
 10
10.0693
 20
-9.00443
 11
9.85529
 21
-9.01939
  0
LINE
  8
0
 10
9.85529
 20
-9.01939
 11
9.64082
 21
-9.01192
  0
LINE
  8
0
 10
-66.8715
 20
-43.73
 11
-66.8715
 21
-31.73
  0
LINE
  8
0
 10
-66.8715
 20
-31.73
 11
-63.6965
 21
-31.73
  0
LINE
  8
0
 10
-63.6965
 20
-31.73
 11
-63.6965
 21
-43.73
  0
LINE
  8
0
 10
-63.6965
 20
-43.73
 11
-66.8715
 21
-43.73
  0
LINE
  8
0
 10
-38.3133
 20
-50.3831
 11
-38.3133
 21
-47.2081
  0
LINE
  8
0
 10
-38.3133
 20
-47.2081
 11
1.18666
 21
-47.2081
  0
LINE
  8
0
 10
1.18666
 20
-47.2081
 11
1.18666
 21
-50.3831
  0
LINE
  8
0
 10
1.18666
 20
-50.3831
 11
-38.3133
 21
-50.3831
  0
LINE
  8
0
 10
-77.3892
 20
-39.3829
 11
-84.0642
 21
-39.3829
  0
LINE
  8
0
 10
-84.0642
 20
-39.3829
 11
-84.0642
 21
-24.3829
  0
LINE
  8
0
 10
-84.0642
 20
-24.3829
 11
-77.3892
 21
-24.3829
  0
LINE
  8
0
 10
-77.3892
 20
-24.3829
 11
-77.3892
 21
-15.3829
  0
LINE
  8
0
 10
-77.3892
 20
-15.3829
 11
-74.3892
 21
-15.3829
  0
LINE
  8
0
 10
-74.3892
 20
-15.3829
 11
-74.3892
 21
8.11703
  0
LINE
  8
0
 10
-74.3892
 20
8.11703
 11
-77.3892
 21
8.11703
  0
LINE
  8
0
 10
-77.3892
 20
8.11703
 11
-77.3892
 21
28.1171
  0
LINE
  8
0
 10
-77.3892
 20
28.1171
 11
-74.3892
 21
28.117
  0
LINE
  8
0
 10
-74.3892
 20
28.117
 11
-74.3892
 21
49.867
  0
LINE
  8
0
 10
-74.3892
 20
49.867
 11
-88.3142
 21
49.867
  0
LINE
  8
0
 10
-88.3142
 20
49.867
 11
-88.3142
 21
47.0295
  0
LINE
  8
0
 10
-88.3142
 20
47.0295
 11
-105.814
 21
47.0295
  0
LINE
  8
0
 10
-105.814
 20
47.0295
 11
-105.814
 21
49.867
  0
LINE
  8
0
 10
-105.814
 20
49.867
 11
-116.739
 21
49.867
  0
LINE
  8
0
 10
-116.739
 20
49.867
 11
-116.739
 21
40.117
  0
LINE
  8
0
 10
-116.739
 20
40.117
 11
-119.739
 21
40.117
  0
LINE
  8
0
 10
-119.739
 20
40.117
 11
-119.739
 21
28.1171
  0
LINE
  8
0
 10
-119.739
 20
28.1171
 11
-116.739
 21
28.117
  0
LINE
  8
0
 10
-116.739
 20
28.117
 11
-116.739
 21
8.11703
  0
LINE
  8
0
 10
-116.739
 20
8.11703
 11
-119.739
 21
8.11703
  0
LINE
  8
0
 10
-119.739
 20
8.11703
 11
-119.739
 21
-11.8829
  0
LINE
  8
0
 10
-119.739
 20
-11.8829
 11
-116.739
 21
-11.8829
  0
LINE
  8
0
 10
-116.739
 20
-11.8829
 11
-116.739
 21
-31.8829
  0
LINE
  8
0
 10
-116.739
 20
-31.8829
 11
-119.739
 21
-31.8829
  0
LINE
  8
0
 10
-119.739
 20
-31.8829
 11
-119.739
 21
-43.8829
  0
LINE
  8
0
 10
-119.739
 20
-43.8829
 11
-116.739
 21
-43.8829
  0
LINE
  8
0
 10
-116.739
 20
-43.8829
 11
-116.739
 21
-50.1329
  0
LINE
  8
0
 10
-116.739
 20
-50.1329
 11
-105.814
 21
-50.1329
  0
LINE
  8
0
 10
-105.814
 20
-50.1329
 11
-105.814
 21
-46.9954
  0
LINE
  8
0
 10
-105.814
 20
-46.9954
 11
-88.3142
 21
-46.9954
  0
LINE
  8
0
 10
-88.3142
 20
-46.9954
 11
-88.3142
 21
-50.1329
  0
LINE
  8
0
 10
-88.3142
 20
-50.1329
 11
-77.3892
 21
-50.1329
  0
LINE
  8
0
 10
-77.3892
 20
-50.1329
 11
-77.3892
 21
-39.3829
  0
LINE
  8
0
 10
21.0087
 20
-102.124
 11
33.0087
 21
-102.124
  0
LINE
  8
0
 10
33.0087
 20
-102.124
 11
33.0087
 21
-62.7736
  0
LINE
  8
0
 10
33.0087
 20
-62.7736
 11
11.0087
 21
-62.7736
  0
LINE
  8
0
 10
11.0087
 20
-62.7736
 11
11.0087
 21
-59.7736
  0
LINE
  8
0
 10
11.0087
 20
-59.7736
 11
-28.4913
 21
-59.7736
  0
LINE
  8
0
 10
-28.4913
 20
-59.7736
 11
-28.4913
 21
-62.7736
  0
LINE
  8
0
 10
-28.4913
 20
-62.7736
 11
-54.4038
 21
-62.7736
  0
LINE
  8
0
 10
-54.4038
 20
-62.7736
 11
-54.4038
 21
-73.8986
  0
LINE
  8
0
 10
-54.4038
 20
-73.8986
 11
-57.4913
 21
-73.8986
  0
LINE
  8
0
 10
-57.4913
 20
-73.8986
 11
-57.4913
 21
-90.9986
  0
LINE
  8
0
 10
-57.4913
 20
-90.9986
 11
-54.4038
 21
-90.9986
  0
LINE
  8
0
 10
-54.4038
 20
-90.9986
 11
-54.4038
 21
-102.124
  0
LINE
  8
0
 10
-54.4038
 20
-102.124
 11
-40.4913
 21
-102.124
  0
LINE
  8
0
 10
-40.4913
 20
-102.124
 11
-40.4913
 21
-105.124
  0
LINE
  8
0
 10
-40.4913
 20
-105.124
 11
-21.4913
 21
-105.124
  0
LINE
  8
0
 10
-21.4913
 20
-105.124
 11
-21.4913
 21
-102.124
  0
LINE
  8
0
 10
-21.4913
 20
-102.124
 11
-16.4913
 21
-102.124
  0
LINE
  8
0
 10
-16.4913
 20
-102.124
 11
-16.4913
 21
-92.4486
  0
LINE
  8
0
 10
-16.4913
 20
-92.4486
 11
13.5087
 21
-92.4486
  0
LINE
  8
0
 10
13.5087
 20
-92.4486
 11
13.5087
 21
-105.124
  0
LINE
  8
0
 10
13.5087
 20
-105.124
 11
21.0087
 21
-105.124
  0
LINE
  8
0
 10
21.0087
 20
-105.124
 11
21.0087
 21
-102.124
  0
LINE
  8
0
 10
20.8815
 20
-80.4157
 11
20.2612
 21
-80.3175
  0
LINE
  8
0
 10
20.2612
 20
-80.3175
 11
19.6546
 21
-80.155
  0
LINE
  8
0
 10
19.6546
 20
-80.155
 11
19.0682
 21
-79.9299
  0
LINE
  8
0
 10
19.0682
 20
-79.9299
 11
18.5087
 21
-79.6448
  0
LINE
  8
0
 10
18.5087
 20
-79.6448
 11
17.9819
 21
-79.3027
  0
LINE
  8
0
 10
17.9819
 20
-79.3027
 11
17.4939
 21
-78.9075
  0
LINE
  8
0
 10
17.4939
 20
-78.9075
 11
17.0498
 21
-78.4634
  0
LINE
  8
0
 10
17.0498
 20
-78.4634
 11
16.6546
 21
-77.9753
  0
LINE
  8
0
 10
16.6546
 20
-77.9753
 11
16.3125
 21
-77.4486
  0
LINE
  8
0
 10
16.3125
 20
-77.4486
 11
16.0274
 21
-76.889
  0
LINE
  8
0
 10
16.0274
 20
-76.889
 11
15.8023
 21
-76.3027
  0
LINE
  8
0
 10
15.8023
 20
-76.3027
 11
15.6398
 21
-75.6961
  0
LINE
  8
0
 10
15.6398
 20
-75.6961
 11
15.5415
 21
-75.0758
  0
LINE
  8
0
 10
15.5415
 20
-75.0758
 11
15.5087
 21
-74.4486
  0
LINE
  8
0
 10
15.5087
 20
-74.4486
 11
15.5415
 21
-73.8214
  0
LINE
  8
0
 10
15.5415
 20
-73.8214
 11
15.6398
 21
-73.2011
  0
LINE
  8
0
 10
15.6398
 20
-73.2011
 11
15.8023
 21
-72.5945
  0
LINE
  8
0
 10
15.8023
 20
-72.5945
 11
16.0274
 21
-72.0082
  0
LINE
  8
0
 10
16.0274
 20
-72.0082
 11
16.3125
 21
-71.4486
  0
LINE
  8
0
 10
16.3125
 20
-71.4486
 11
16.6546
 21
-70.9219
  0
LINE
  8
0
 10
16.6546
 20
-70.9219
 11
17.0498
 21
-70.4338
  0
LINE
  8
0
 10
17.0498
 20
-70.4338
 11
17.4939
 21
-69.9897
  0
LINE
  8
0
 10
17.4939
 20
-69.9897
 11
17.9819
 21
-69.5945
  0
LINE
  8
0
 10
17.9819
 20
-69.5945
 11
18.5087
 21
-69.2525
  0
LINE
  8
0
 10
18.5087
 20
-69.2525
 11
19.0682
 21
-68.9673
  0
LINE
  8
0
 10
19.0682
 20
-68.9673
 11
19.6546
 21
-68.7423
  0
LINE
  8
0
 10
19.6546
 20
-68.7423
 11
20.2612
 21
-68.5797
  0
LINE
  8
0
 10
20.2612
 20
-68.5797
 11
20.8815
 21
-68.4815
  0
LINE
  8
0
 10
20.8815
 20
-68.4815
 11
21.5087
 21
-68.4486
  0
LINE
  8
0
 10
21.5087
 20
-68.4486
 11
22.1358
 21
-68.4815
  0
LINE
  8
0
 10
22.1358
 20
-68.4815
 11
22.7561
 21
-68.5797
  0
LINE
  8
0
 10
22.7561
 20
-68.5797
 11
23.3628
 21
-68.7423
  0
LINE
  8
0
 10
23.3628
 20
-68.7423
 11
23.9491
 21
-68.9673
  0
LINE
  8
0
 10
23.9491
 20
-68.9673
 11
24.5087
 21
-69.2525
  0
LINE
  8
0
 10
24.5087
 20
-69.2525
 11
25.0354
 21
-69.5945
  0
LINE
  8
0
 10
25.0354
 20
-69.5945
 11
25.5234
 21
-69.9897
  0
LINE
  8
0
 10
25.5234
 20
-69.9897
 11
25.9675
 21
-70.4338
  0
LINE
  8
0
 10
25.9675
 20
-70.4338
 11
26.3628
 21
-70.9219
  0
LINE
  8
0
 10
26.3628
 20
-70.9219
 11
26.7048
 21
-71.4486
  0
LINE
  8
0
 10
26.7048
 20
-71.4486
 11
26.9899
 21
-72.0082
  0
LINE
  8
0
 10
26.9899
 20
-72.0082
 11
27.215
 21
-72.5945
  0
LINE
  8
0
 10
27.215
 20
-72.5945
 11
27.3775
 21
-73.2012
  0
LINE
  8
0
 10
27.3775
 20
-73.2012
 11
27.4758
 21
-73.8214
  0
LINE
  8
0
 10
27.4758
 20
-73.8214
 11
27.5087
 21
-74.4486
  0
LINE
  8
0
 10
27.5087
 20
-74.4486
 11
27.4758
 21
-75.0758
  0
LINE
  8
0
 10
27.4758
 20
-75.0758
 11
27.3775
 21
-75.6961
  0
LINE
  8
0
 10
27.3775
 20
-75.6961
 11
27.215
 21
-76.3027
  0
LINE
  8
0
 10
27.215
 20
-76.3027
 11
26.9899
 21
-76.8891
  0
LINE
  8
0
 10
26.9899
 20
-76.8891
 11
26.7048
 21
-77.4486
  0
LINE
  8
0
 10
26.7048
 20
-77.4486
 11
26.3628
 21
-77.9753
  0
LINE
  8
0
 10
26.3628
 20
-77.9753
 11
25.9675
 21
-78.4634
  0
LINE
  8
0
 10
25.9675
 20
-78.4634
 11
25.5234
 21
-78.9075
  0
LINE
  8
0
 10
25.5234
 20
-78.9075
 11
25.0354
 21
-79.3027
  0
LINE
  8
0
 10
25.0354
 20
-79.3027
 11
24.5087
 21
-79.6448
  0
LINE
  8
0
 10
24.5087
 20
-79.6448
 11
23.9491
 21
-79.9299
  0
LINE
  8
0
 10
23.9491
 20
-79.9299
 11
23.3628
 21
-80.155
  0
LINE
  8
0
 10
23.3628
 20
-80.155
 11
22.7561
 21
-80.3175
  0
LINE
  8
0
 10
22.7561
 20
-80.3175
 11
22.1358
 21
-80.4157
  0
LINE
  8
0
 10
22.1358
 20
-80.4157
 11
21.5087
 21
-80.4486
  0
LINE
  8
0
 10
21.5087
 20
-80.4486
 11
20.8815
 21
-80.4157
  0
LINE
  8
0
 10
5.19507
 20
-75.4322
 11
4.88493
 21
-75.3831
  0
LINE
  8
0
 10
4.88493
 20
-75.3831
 11
4.58162
 21
-75.3018
  0
LINE
  8
0
 10
4.58162
 20
-75.3018
 11
4.28847
 21
-75.1893
  0
LINE
  8
0
 10
4.28847
 20
-75.1893
 11
4.00867
 21
-75.0467
  0
LINE
  8
0
 10
4.00867
 20
-75.0467
 11
3.74532
 21
-74.8757
  0
LINE
  8
0
 10
3.74532
 20
-74.8757
 11
3.50128
 21
-74.6781
  0
LINE
  8
0
 10
3.50128
 20
-74.6781
 11
3.27924
 21
-74.456
  0
LINE
  8
0
 10
3.27924
 20
-74.456
 11
3.08162
 21
-74.212
  0
LINE
  8
0
 10
3.08162
 20
-74.212
 11
2.9106
 21
-73.9486
  0
LINE
  8
0
 10
2.9106
 20
-73.9486
 11
2.76804
 21
-73.6688
  0
LINE
  8
0
 10
2.76804
 20
-73.6688
 11
2.6555
 21
-73.3757
  0
LINE
  8
0
 10
2.6555
 20
-73.3757
 11
2.57423
 21
-73.0724
  0
LINE
  8
0
 10
2.57423
 20
-73.0724
 11
2.52512
 21
-72.7622
  0
LINE
  8
0
 10
2.52512
 20
-72.7622
 11
2.50868
 21
-72.4486
  0
LINE
  8
0
 10
2.50868
 20
-72.4486
 11
2.52512
 21
-72.135
  0
LINE
  8
0
 10
2.52512
 20
-72.135
 11
2.57423
 21
-71.8249
  0
LINE
  8
0
 10
2.57423
 20
-71.8249
 11
2.6555
 21
-71.5216
  0
LINE
  8
0
 10
2.6555
 20
-71.5216
 11
2.76804
 21
-71.2284
  0
LINE
  8
0
 10
2.76804
 20
-71.2284
 11
2.9106
 21
-70.9486
  0
LINE
  8
0
 10
2.9106
 20
-70.9486
 11
3.08162
 21
-70.6853
  0
LINE
  8
0
 10
3.08162
 20
-70.6853
 11
3.27924
 21
-70.4412
  0
LINE
  8
0
 10
3.27924
 20
-70.4412
 11
3.50128
 21
-70.2192
  0
LINE
  8
0
 10
3.50128
 20
-70.2192
 11
3.74532
 21
-70.0216
  0
LINE
  8
0
 10
3.74532
 20
-70.0216
 11
4.00868
 21
-69.8505
  0
LINE
  8
0
 10
4.00868
 20
-69.8505
 11
4.28847
 21
-69.708
  0
LINE
  8
0
 10
4.28847
 20
-69.708
 11
4.58162
 21
-69.5954
  0
LINE
  8
0
 10
4.58162
 20
-69.5954
 11
4.88493
 21
-69.5142
  0
LINE
  8
0
 10
4.88493
 20
-69.5142
 11
5.19508
 21
-69.4651
  0
LINE
  8
0
 10
5.19508
 20
-69.4651
 11
5.50868
 21
-69.4486
  0
LINE
  8
0
 10
5.50868
 20
-69.4486
 11
5.82227
 21
-69.4651
  0
LINE
  8
0
 10
5.82227
 20
-69.4651
 11
6.13242
 21
-69.5142
  0
LINE
  8
0
 10
6.13242
 20
-69.5142
 11
6.43573
 21
-69.5954
  0
LINE
  8
0
 10
6.43573
 20
-69.5954
 11
6.72888
 21
-69.708
  0
LINE
  8
0
 10
6.72888
 20
-69.708
 11
7.00868
 21
-69.8505
  0
LINE
  8
0
 10
7.00868
 20
-69.8505
 11
7.27203
 21
-70.0216
  0
LINE
  8
0
 10
7.27203
 20
-70.0216
 11
7.51607
 21
-70.2192
  0
LINE
  8
0
 10
7.51607
 20
-70.2192
 11
7.73811
 21
-70.4412
  0
LINE
  8
0
 10
7.73811
 20
-70.4412
 11
7.93573
 21
-70.6853
  0
LINE
  8
0
 10
7.93573
 20
-70.6853
 11
8.10675
 21
-70.9486
  0
LINE
  8
0
 10
8.10675
 20
-70.9486
 11
8.24931
 21
-71.2284
  0
LINE
  8
0
 10
8.24931
 20
-71.2284
 11
8.36185
 21
-71.5216
  0
LINE
  8
0
 10
8.36185
 20
-71.5216
 11
8.44312
 21
-71.8249
  0
LINE
  8
0
 10
8.44312
 20
-71.8249
 11
8.49223
 21
-72.135
  0
LINE
  8
0
 10
8.49223
 20
-72.135
 11
8.50868
 21
-72.4486
  0
LINE
  8
0
 10
8.50868
 20
-72.4486
 11
8.49223
 21
-72.7622
  0
LINE
  8
0
 10
8.49223
 20
-72.7622
 11
8.44312
 21
-73.0724
  0
LINE
  8
0
 10
8.44312
 20
-73.0724
 11
8.36185
 21
-73.3757
  0
LINE
  8
0
 10
8.36185
 20
-73.3757
 11
8.24931
 21
-73.6688
  0
LINE
  8
0
 10
8.24931
 20
-73.6688
 11
8.10675
 21
-73.9486
  0
LINE
  8
0
 10
8.10675
 20
-73.9486
 11
7.93573
 21
-74.212
  0
LINE
  8
0
 10
7.93573
 20
-74.212
 11
7.73811
 21
-74.456
  0
LINE
  8
0
 10
7.73811
 20
-74.456
 11
7.51605
 21
-74.6781
  0
LINE
  8
0
 10
7.51605
 20
-74.6781
 11
7.27203
 21
-74.8757
  0
LINE
  8
0
 10
7.27203
 20
-74.8757
 11
7.00868
 21
-75.0467
  0
LINE
  8
0
 10
7.00868
 20
-75.0467
 11
6.72887
 21
-75.1893
  0
LINE
  8
0
 10
6.72887
 20
-75.1893
 11
6.43573
 21
-75.3018
  0
LINE
  8
0
 10
6.43573
 20
-75.3018
 11
6.13242
 21
-75.3831
  0
LINE
  8
0
 10
6.13242
 20
-75.3831
 11
5.82227
 21
-75.4322
  0
LINE
  8
0
 10
5.82227
 20
-75.4322
 11
5.50865
 21
-75.4486
  0
LINE
  8
0
 10
5.50865
 20
-75.4486
 11
5.19507
 21
-75.4322
  0
ENDSEC
  0
SECTION
  2
OBJECTS
  0
DICTIONARY
  0
ENDSEC
  0
EOF
