999
DXF from OpenSCAD
  0
SECTION
  2
HEADER
  9
$ACADVER
  1
AC1006
  9
$INSBASE
 10
0.0
 20
0.0
 30
0.0
  9
$EXTMIN
 10
-120.384
 20
-119.434
  9
$EXTMAX
 10
47.2916
 20
119.077
  9
$LINMIN
 10
-120.384
 20
-119.434
  9
$LINMAX
 10
47.2916
 20
119.077
  0
ENDSEC
  0
SECTION
  2
TABLES
  0
TABLE
  2
LTYPE
 70
1
  0
LTYPE
  2
CONTINUOUS
 70
64
  3
Solid line
 72
65
 73
0
 40
0.000000
  0
ENDTAB
  0
TABLE
  2
LAYER
 70
6
  0
LAYER
  2
0
 70
64
 62
7
  6
CONTINUOUS
  0
ENDTAB
  0
TABLE
  2
STYLE
 70
0
  0
ENDTAB
  0
ENDSEC
  0
SECTION
  2
BLOCKS
  0
ENDSEC
  0
SECTION
  2
ENTITIES
  0
LWPOLYLINE
100
AcDbEntity
  8
0
100
AcDbPolyline
 90
16
 70
1
 10
36.1316
 20
104.25
 10
20.0545
 20
107.962
 10
20.7659
 20
111.043
 10
-9.43959
 20
118.017
 10
-10.151
 20
114.935
 10
-28.0916
 20
119.077
 10
-31.1087
 20
106.008
 10
-34.1171
 20
106.703
 10
-37.9863
 20
89.9436
 10
-34.9779
 20
89.2491
 10
-37.9951
 20
76.1803
 10
-20.0545
 20
72.0384
 10
-20.7659
 20
68.957
 10
9.43959
 20
61.9835
 10
10.151
 20
65.0649
 10
26.2281
 20
61.3532
  0
LWPOLYLINE
100
AcDbEntity
  8
0
100
AcDbPolyline
 90
117
 70
1
 10
29.7236
 20
-62.8066
 10
30.7601
 20
-62.661
 10
31.7757
 20
-62.4077
 10
32.7593
 20
-62.0497
 10
33.7001
 20
-61.5909
 10
34.5878
 20
-61.0362
 10
35.4126
 20
-60.3918
 10
36.1655
 20
-59.6647
 10
36.8384
 20
-58.8628
 10
37.4237
 20
-57.9951
 10
37.9151
 20
-57.0709
 10
38.3072
 20
-56.1004
 10
38.5957
 20
-55.0942
 10
47.2916
 20
-17.4282
 10
46.7626
 20
-17.3444
 10
43.7295
 20
-16.5317
 10
40.7979
 20
-15.4064
 10
38
 20
-13.9808
 10
35.3664
 20
-12.2705
 10
32.9261
 20
-10.2943
 10
30.7057
 20
-8.07392
 10
28.7295
 20
-5.63356
 10
27.0192
 20
-3
 10
25.5936
 20
-0.202099
 10
24.4683
 20
2.72949
 10
23.6556
 20
5.76265
 10
23.1643
 20
8.86415
 10
23
 20
12
 10
23.0037
 20
12.0703
 10
22.8362
 20
12.0438
 10
22
 20
12
 10
21.1638
 20
12.0438
 10
20.3367
 20
12.1748
 10
19.5279
 20
12.3915
 10
18.7461
 20
12.6916
 10
18
 20
13.0718
 10
17.2977
 20
13.5279
 10
16.647
 20
14.0548
 10
16.0548
 20
14.647
 10
15.5279
 20
15.2977
 10
15.0718
 20
16
 10
14.6916
 20
16.7461
 10
14.3915
 20
17.5279
 10
14.1748
 20
18.3367
 10
14.0438
 20
19.1638
 10
14
 20
20
 10
14.0438
 20
20.8362
 10
14.1748
 20
21.6633
 10
14.3915
 20
22.4721
 10
14.6916
 20
23.2539
 10
15.0718
 20
24
 10
15.5279
 20
24.7023
 10
16.0548
 20
25.353
 10
16.647
 20
25.9452
 10
17.2977
 20
26.4721
 10
18
 20
26.9282
 10
18.7461
 20
27.3084
 10
19.5279
 20
27.6085
 10
20.3367
 20
27.8252
 10
21.1638
 20
27.9562
 10
22
 20
28
 10
22.8362
 20
27.9562
 10
23.6633
 20
27.8252
 10
24.4721
 20
27.6085
 10
25.2539
 20
27.3084
 10
26
 20
26.9282
 10
26.7023
 20
26.4721
 10
26.7363
 20
26.4446
 10
27.0192
 20
27
 10
28.7295
 20
29.6336
 10
30.7057
 20
32.0739
 10
32.9261
 20
34.2943
 10
35.3664
 20
36.2705
 10
38
 20
37.9808
 10
38.5007
 20
38.2359
 10
38.3278
 20
38.8813
 10
38.0822
 20
40.4321
 10
38
 20
42
 10
38.0822
 20
43.5679
 10
38.3278
 20
45.1187
 10
38.7342
 20
46.6353
 10
39.0406
 20
47.4335
 10
-26.6025
 20
62.5884
 10
-27.6333
 20
62.7702
 10
-28.6775
 20
62.8432
 10
-29.7236
 20
62.8066
 10
-30.7601
 20
62.661
 10
-31.7757
 20
62.4077
 10
-32.7593
 20
62.0497
 10
-33.7001
 20
61.5909
 10
-34.5878
 20
61.0362
 10
-35.4126
 20
60.3918
 10
-36.1655
 20
59.6647
 10
-36.8384
 20
58.8628
 10
-37.4237
 20
57.9951
 10
-37.9151
 20
57.0709
 10
-38.3072
 20
56.1004
 10
-38.5957
 20
55.0942
 10
-58.8413
 20
-32.5991
 10
-59.0231
 20
-33.6299
 10
-59.0961
 20
-34.6741
 10
-59.0595
 20
-35.7202
 10
-58.9139
 20
-36.7567
 10
-58.6606
 20
-37.7723
 10
-58.3026
 20
-38.7559
 10
-57.8438
 20
-39.6967
 10
-57.2891
 20
-40.5844
 10
-56.6447
 20
-41.4092
 10
-55.9176
 20
-42.1621
 10
-55.1157
 20
-42.835
 10
-54.248
 20
-43.4203
 10
-53.3238
 20
-43.9117
 10
-52.3533
 20
-44.3038
 10
-51.3471
 20
-44.5923
 10
26.6025
 20
-62.5884
 10
27.6333
 20
-62.7702
 10
28.6775
 20
-62.8432
  0
LWPOLYLINE
100
AcDbEntity
  8
0
100
AcDbPolyline
 90
4
 70
1
 10
-38.7983
 20
37.5882
 10
-33.9056
 20
58.7808
 10
-30.812
 20
58.0665
 10
-35.7047
 20
36.874
  0
LWPOLYLINE
100
AcDbEntity
  8
0
100
AcDbPolyline
 90
4
 70
1
 10
-13.4598
 20
50.9399
 10
-12.7456
 20
54.0336
 10
17.4598
 20
47.0601
 10
16.7456
 20
43.9664
  0
LWPOLYLINE
100
AcDbEntity
  8
0
100
AcDbPolyline
 90
48
 70
1
 10
-29.8406
 20
17.4569
 10
-24.4418
 20
40.8418
 10
-6.21985
 20
36.6349
 10
-6.3287
 20
36.9184
 10
-6.42352
 20
37.2723
 10
-6.48083
 20
37.6341
 10
-6.5
 20
38
 10
-6.48083
 20
38.3658
 10
-6.42352
 20
38.7277
 10
-6.3287
 20
39.0816
 10
-6.19741
 20
39.4236
 10
-6.03109
 20
39.75
 10
-5.83156
 20
40.0572
 10
-5.60101
 20
40.342
 10
-5.34196
 20
40.601
 10
-5.05725
 20
40.8316
 10
-4.75
 20
41.0311
 10
-4.42358
 20
41.1974
 10
-4.08156
 20
41.3287
 10
-3.72769
 20
41.4235
 10
-3.36585
 20
41.4808
 10
-3
 20
41.5
 10
-2.63415
 20
41.4808
 10
-2.27231
 20
41.4235
 10
-1.91844
 20
41.3287
 10
-1.57642
 20
41.1974
 10
-1.25
 20
41.0311
 10
-0.942751
 20
40.8316
 10
-0.658042
 20
40.601
 10
-0.398993
 20
40.342
 10
-0.16844
 20
40.0572
 10
0.0310888
 20
39.75
 10
0.197409
 20
39.4236
 10
0.328697
 20
39.0816
 10
0.423516
 20
38.7277
 10
0.480826
 20
38.3658
 10
0.5
 20
38
 10
0.480826
 20
37.6341
 10
0.423516
 20
37.2723
 10
0.328697
 20
36.9184
 10
0.197409
 20
36.5764
 10
0.0310888
 20
36.25
 10
-0.16844
 20
35.9427
 10
-0.398993
 20
35.658
 10
-0.658042
 20
35.399
 10
-0.704305
 20
35.3615
 10
2.84059
 20
34.5431
 10
-2.55823
 20
11.1582
  0
LWPOLYLINE
100
AcDbEntity
  8
0
100
AcDbPolyline
 90
5
 70
1
 10
-47.7963
 20
-1.38659
 10
-43.2973
 20
18.1008
 10
-40.2037
 20
17.3866
 10
-42.0649
 20
9.32484
 10
-44.7027
 20
-2.10081
  0
LWPOLYLINE
100
AcDbEntity
  8
0
100
AcDbPolyline
 90
60
 70
1
 10
7.78572
 20
-11.0388
 10
7.57378
 20
-11.0052
 10
7.36652
 20
-10.9497
 10
7.16619
 20
-10.8728
 10
6.975
 20
-10.7754
 10
6.79504
 20
-10.6585
 10
6.62828
 20
-10.5234
 10
6.47655
 20
-10.3717
 10
6.34151
 20
-10.205
 10
6.22465
 20
-10.025
 10
6.12723
 20
-9.83381
 10
6.05033
 20
-9.63348
 10
5.9948
 20
-9.42622
 10
5.96123
 20
-9.21428
 10
5.95
 20
-9
 10
5.96123
 20
-8.78572
 10
5.9948
 20
-8.57378
 10
6.05033
 20
-8.36652
 10
6.12723
 20
-8.16619
 10
6.22465
 20
-7.975
 10
6.34151
 20
-7.79504
 10
6.47655
 20
-7.62828
 10
6.62828
 20
-7.47655
 10
6.79504
 20
-7.34151
 10
6.975
 20
-7.22465
 10
7.16619
 20
-7.12723
 10
7.36652
 20
-7.05033
 10
7.57378
 20
-6.9948
 10
7.78572
 20
-6.96123
 10
8
 20
-6.95
 10
8.21428
 20
-6.96123
 10
8.42622
 20
-6.9948
 10
8.63348
 20
-7.05033
 10
8.83381
 20
-7.12723
 10
9.025
 20
-7.22465
 10
9.20496
 20
-7.34151
 10
9.37172
 20
-7.47655
 10
9.52345
 20
-7.62828
 10
9.65848
 20
-7.79504
 10
9.77535
 20
-7.975
 10
9.87277
 20
-8.16619
 10
9.94967
 20
-8.36652
 10
10.0052
 20
-8.57378
 10
10.0388
 20
-8.78572
 10
10.05
 20
-9
 10
10.0388
 20
-9.21428
 10
10.0052
 20
-9.42622
 10
9.94967
 20
-9.63348
 10
9.87277
 20
-9.83381
 10
9.77535
 20
-10.025
 10
9.65848
 20
-10.205
 10
9.52345
 20
-10.3717
 10
9.37172
 20
-10.5234
 10
9.20496
 20
-10.6585
 10
9.025
 20
-10.7754
 10
8.83381
 20
-10.8728
 10
8.63348
 20
-10.9497
 10
8.42622
 20
-11.0052
 10
8.21428
 20
-11.0388
 10
8
 20
-11.05
  0
LWPOLYLINE
100
AcDbEntity
  8
0
100
AcDbPolyline
 90
60
 70
1
 10
-37.98
 20
-20.7781
 10
-38.3408
 20
-20.7145
 10
-38.693
 20
-20.6135
 10
-39.0327
 20
-20.4762
 10
-39.3561
 20
-20.3043
 10
-39.6598
 20
-20.0994
 10
-39.9405
 20
-19.8639
 10
-40.195
 20
-19.6004
 10
-40.4205
 20
-19.3117
 10
-40.6147
 20
-19.001
 10
-40.7753
 20
-18.6717
 10
-40.9006
 20
-18.3275
 10
-40.9892
 20
-17.972
 10
-41.0402
 20
-17.6092
 10
-41.053
 20
-17.2431
 10
-41.0274
 20
-16.8776
 10
-40.9638
 20
-16.5168
 10
-40.8628
 20
-16.1647
 10
-40.7256
 20
-15.825
 10
-40.5536
 20
-15.5015
 10
-40.3487
 20
-15.1978
 10
-40.1132
 20
-14.9172
 10
-39.8497
 20
-14.6627
 10
-39.561
 20
-14.4371
 10
-39.2503
 20
-14.243
 10
-38.9211
 20
-14.0824
 10
-38.5768
 20
-13.9571
 10
-38.2213
 20
-13.8685
 10
-37.8585
 20
-13.8175
 10
-37.4924
 20
-13.8047
 10
-37.1269
 20
-13.8303
 10
-36.7662
 20
-13.8939
 10
-36.414
 20
-13.9949
 10
-36.0743
 20
-14.1321
 10
-35.7509
 20
-14.3041
 10
-35.4471
 20
-14.5089
 10
-35.1665
 20
-14.7444
 10
-34.912
 20
-15.008
 10
-34.6865
 20
-15.2966
 10
-34.4923
 20
-15.6073
 10
-34.3317
 20
-15.9366
 10
-34.2064
 20
-16.2809
 10
-34.1178
 20
-16.6363
 10
-34.0668
 20
-16.9991
 10
-34.054
 20
-17.3652
 10
-34.0796
 20
-17.7307
 10
-34.1432
 20
-18.0915
 10
-34.2442
 20
-18.4437
 10
-34.3814
 20
-18.7833
 10
-34.5534
 20
-19.1068
 10
-34.7583
 20
-19.4105
 10
-34.9938
 20
-19.6912
 10
-35.2573
 20
-19.9456
 10
-35.546
 20
-20.1712
 10
-35.8567
 20
-20.3653
 10
-36.1859
 20
-20.5259
 10
-36.5302
 20
-20.6512
 10
-36.8857
 20
-20.7399
 10
-37.2484
 20
-20.7908
 10
-37.6146
 20
-20.8036
  0
LWPOLYLINE
100
AcDbEntity
  8
0
100
AcDbPolyline
 90
60
 70
1
 10
-24.3389
 20
-23.9274
 10
-24.6996
 20
-23.8638
 10
-25.0518
 20
-23.7628
 10
-25.3915
 20
-23.6256
 10
-25.7149
 20
-23.4536
 10
-26.0187
 20
-23.2487
 10
-26.2993
 20
-23.0132
 10
-26.5538
 20
-22.7497
 10
-26.7793
 20
-22.461
 10
-26.9735
 20
-22.1503
 10
-27.1341
 20
-21.821
 10
-27.2594
 20
-21.4768
 10
-27.348
 20
-21.1213
 10
-27.399
 20
-20.7585
 10
-27.4118
 20
-20.3924
 10
-27.3862
 20
-20.0269
 10
-27.3226
 20
-19.6662
 10
-27.2216
 20
-19.314
 10
-27.0844
 20
-18.9743
 10
-26.9124
 20
-18.6508
 10
-26.7075
 20
-18.3471
 10
-26.472
 20
-18.0665
 10
-26.2085
 20
-17.812
 10
-25.9198
 20
-17.5864
 10
-25.6091
 20
-17.3923
 10
-25.2799
 20
-17.2317
 10
-24.9356
 20
-17.1064
 10
-24.5801
 20
-17.0178
 10
-24.2174
 20
-16.9668
 10
-23.8512
 20
-16.954
 10
-23.4858
 20
-16.9796
 10
-23.125
 20
-17.0432
 10
-22.7728
 20
-17.1442
 10
-22.4331
 20
-17.2814
 10
-22.1097
 20
-17.4534
 10
-21.806
 20
-17.6583
 10
-21.5253
 20
-17.8937
 10
-21.2708
 20
-18.1573
 10
-21.0453
 20
-18.446
 10
-20.8511
 20
-18.7566
 10
-20.6905
 20
-19.0859
 10
-20.5652
 20
-19.4302
 10
-20.4766
 20
-19.7856
 10
-20.4256
 20
-20.1484
 10
-20.4128
 20
-20.5146
 10
-20.4384
 20
-20.88
 10
-20.502
 20
-21.2408
 10
-20.603
 20
-21.593
 10
-20.7402
 20
-21.9326
 10
-20.9122
 20
-22.2561
 10
-21.1171
 20
-22.5598
 10
-21.3526
 20
-22.8405
 10
-21.6161
 20
-23.095
 10
-21.9048
 20
-23.3205
 10
-22.2155
 20
-23.5146
 10
-22.5448
 20
-23.6752
 10
-22.889
 20
-23.8005
 10
-23.2445
 20
-23.8892
 10
-23.6073
 20
-23.9402
 10
-23.9734
 20
-23.9529
  0
LWPOLYLINE
100
AcDbEntity
  8
0
100
AcDbPolyline
 90
60
 70
1
 10
-11.672
 20
-26.8518
 10
-12.0328
 20
-26.7881
 10
-12.385
 20
-26.6872
 10
-12.7247
 20
-26.5499
 10
-13.0481
 20
-26.3779
 10
-13.3519
 20
-26.1731
 10
-13.6325
 20
-25.9376
 10
-13.887
 20
-25.6741
 10
-14.1125
 20
-25.3854
 10
-14.3067
 20
-25.0747
 10
-14.4673
 20
-24.7454
 10
-14.5926
 20
-24.4011
 10
-14.6812
 20
-24.0457
 10
-14.7322
 20
-23.6829
 10
-14.745
 20
-23.3168
 10
-14.7194
 20
-22.9513
 10
-14.6558
 20
-22.5905
 10
-14.5548
 20
-22.2384
 10
-14.4176
 20
-21.8987
 10
-14.2456
 20
-21.5752
 10
-14.0407
 20
-21.2715
 10
-13.8052
 20
-20.9908
 10
-13.5417
 20
-20.7364
 10
-13.253
 20
-20.5108
 10
-12.9423
 20
-20.3167
 10
-12.6131
 20
-20.1561
 10
-12.2688
 20
-20.0308
 10
-11.9133
 20
-19.9421
 10
-11.5505
 20
-19.8912
 10
-11.1844
 20
-19.8784
 10
-10.819
 20
-19.9039
 10
-10.4582
 20
-19.9675
 10
-10.106
 20
-20.0685
 10
-9.76634
 20
-20.2058
 10
-9.44287
 20
-20.3778
 10
-9.13915
 20
-20.5826
 10
-8.85851
 20
-20.8181
 10
-8.60402
 20
-21.0816
 10
-8.37847
 20
-21.3703
 10
-8.18433
 20
-21.681
 10
-8.02373
 20
-22.0103
 10
-7.89843
 20
-22.3545
 10
-7.80981
 20
-22.71
 10
-7.75882
 20
-23.0728
 10
-7.74603
 20
-23.4389
 10
-7.77159
 20
-23.8044
 10
-7.83521
 20
-24.1652
 10
-7.93619
 20
-24.5173
 10
-8.07342
 20
-24.857
 10
-8.24542
 20
-25.1805
 10
-8.45028
 20
-25.4842
 10
-8.68576
 20
-25.7648
 10
-8.94929
 20
-26.0193
 10
-9.23798
 20
-26.2449
 10
-9.54867
 20
-26.439
 10
-9.87794
 20
-26.5996
 10
-10.2222
 20
-26.7249
 10
-10.5777
 20
-26.8135
 10
-10.9405
 20
-26.8645
 10
-11.3066
 20
-26.8773
  0
LWPOLYLINE
100
AcDbEntity
  8
0
100
AcDbPolyline
 90
5
 70
1
 10
-56.4007
 20
-38.6562
 10
-52.2953
 20
-20.874
 10
-49.2017
 20
-21.5882
 10
-52.5996
 20
-36.3063
 10
-53.3071
 20
-39.3705
  0
LWPOLYLINE
100
AcDbEntity
  8
0
100
AcDbPolyline
 90
60
 70
1
 10
-26.3658
 20
-36.4808
 10
-26.7277
 20
-36.4235
 10
-27.0816
 20
-36.3287
 10
-27.4236
 20
-36.1974
 10
-27.75
 20
-36.0311
 10
-28.0572
 20
-35.8316
 10
-28.342
 20
-35.601
 10
-28.601
 20
-35.342
 10
-28.8316
 20
-35.0572
 10
-29.0311
 20
-34.75
 10
-29.1974
 20
-34.4236
 10
-29.3287
 20
-34.0816
 10
-29.4235
 20
-33.7277
 10
-29.4808
 20
-33.3658
 10
-29.5
 20
-33
 10
-29.4808
 20
-32.6341
 10
-29.4235
 20
-32.2723
 10
-29.3287
 20
-31.9184
 10
-29.1974
 20
-31.5764
 10
-29.0311
 20
-31.25
 10
-28.8316
 20
-30.9428
 10
-28.601
 20
-30.658
 10
-28.342
 20
-30.399
 10
-28.0572
 20
-30.1684
 10
-27.75
 20
-29.9689
 10
-27.4236
 20
-29.8026
 10
-27.0816
 20
-29.6713
 10
-26.7277
 20
-29.5765
 10
-26.3658
 20
-29.5192
 10
-26
 20
-29.5
 10
-25.6341
 20
-29.5192
 10
-25.2723
 20
-29.5765
 10
-24.9184
 20
-29.6713
 10
-24.5764
 20
-29.8026
 10
-24.25
 20
-29.9689
 10
-23.9428
 20
-30.1684
 10
-23.658
 20
-30.399
 10
-23.399
 20
-30.658
 10
-23.1684
 20
-30.9428
 10
-22.9689
 20
-31.25
 10
-22.8026
 20
-31.5764
 10
-22.6713
 20
-31.9184
 10
-22.5765
 20
-32.2723
 10
-22.5192
 20
-32.6341
 10
-22.5
 20
-33
 10
-22.5192
 20
-33.3658
 10
-22.5765
 20
-33.7277
 10
-22.6713
 20
-34.0816
 10
-22.8026
 20
-34.4236
 10
-22.9689
 20
-34.75
 10
-23.1684
 20
-35.0572
 10
-23.399
 20
-35.342
 10
-23.658
 20
-35.601
 10
-23.9428
 20
-35.8316
 10
-24.25
 20
-36.0311
 10
-24.5764
 20
-36.1974
 10
-24.9184
 20
-36.3287
 10
-25.2723
 20
-36.4235
 10
-25.6341
 20
-36.4808
 10
-26
 20
-36.5
  0
LWPOLYLINE
100
AcDbEntity
  8
0
100
AcDbPolyline
 90
4
 70
1
 10
-39.4086
 20
-42.6102
 10
-38.6944
 20
-39.5165
 10
-4.59141
 20
-47.3898
 10
-5.30563
 20
-50.4835
  0
LWPOLYLINE
100
AcDbEntity
  8
0
100
AcDbPolyline
 90
32
 70
1
 10
-67.2188
 20
-34.8942
 10
-70.3002
 20
-34.1828
 10
-70.1877
 20
-33.6957
 10
-79.4564
 20
-31.5558
 10
-76.0822
 20
-16.9403
 10
-66.8135
 20
-19.0801
 10
-65.8012
 20
-14.6954
 10
-62.7197
 20
-15.4068
 10
-58.2207
 20
4.08056
 10
-61.3022
 20
4.79197
 10
-56.8031
 20
24.2794
 10
-53.7217
 20
23.568
 10
-48.829
 20
44.7605
 10
-64.833
 20
48.4553
 10
-65.4713
 20
45.6906
 10
-82.5228
 20
49.6272
 10
-81.8845
 20
52.392
 10
-97.8885
 20
56.0868
 10
-102.781
 20
34.8942
 10
-99.6998
 20
34.1828
 10
-104.199
 20
14.6954
 10
-107.28
 20
15.4068
 10
-111.779
 20
-4.08056
 10
-108.698
 20
-4.79197
 10
-113.197
 20
-24.2794
 10
-116.278
 20
-23.568
 10
-120.384
 20
-41.3502
 10
-104.38
 20
-45.045
 10
-103.674
 20
-41.9879
 10
-86.6224
 20
-45.9246
 10
-87.3282
 20
-48.9817
 10
-71.3241
 20
-52.6765
  0
LWPOLYLINE
100
AcDbEntity
  8
0
100
AcDbPolyline
 90
16
 70
1
 10
39.5419
 20
-76.5374
 10
22.0032
 20
-72.4883
 10
22.7146
 20
-69.4069
 10
-11.3883
 20
-61.5336
 10
-12.0997
 20
-64.615
 10
-26.1428
 20
-61.3729
 10
-29.1713
 20
-74.4904
 10
-32.1796
 20
-73.7958
 10
-36.0263
 20
-90.4576
 10
-33.0179
 20
-91.1521
 10
-36.0463
 20
-104.27
 10
-17.1314
 20
-108.636
 10
-17.8428
 20
-111.718
 10
6.51648
 20
-117.342
 10
7.22789
 20
-114.26
 10
29.6384
 20
-119.434
  0
LWPOLYLINE
100
AcDbEntity
  8
0
100
AcDbPolyline
 90
60
 70
1
 10
-14.7562
 20
-88.629
 10
-15.0655
 20
-88.5745
 10
-15.3673
 20
-88.4879
 10
-15.6585
 20
-88.3703
 10
-15.9357
 20
-88.2229
 10
-16.196
 20
-88.0473
 10
-16.4366
 20
-87.8454
 10
-16.6547
 20
-87.6195
 10
-16.8481
 20
-87.3721
 10
-17.0145
 20
-87.1058
 10
-17.1521
 20
-86.8236
 10
-17.2595
 20
-86.5285
 10
-17.3355
 20
-86.2238
 10
-17.3792
 20
-85.9128
 10
-17.3901
 20
-85.599
 10
-17.3682
 20
-85.2858
 10
-17.3137
 20
-84.9765
 10
-17.2272
 20
-84.6747
 10
-17.1095
 20
-84.3835
 10
-16.9621
 20
-84.1063
 10
-16.7865
 20
-83.8459
 10
-16.5847
 20
-83.6054
 10
-16.3588
 20
-83.3872
 10
-16.1113
 20
-83.1939
 10
-15.845
 20
-83.0275
 10
-15.5628
 20
-82.8899
 10
-15.2677
 20
-82.7825
 10
-14.963
 20
-82.7065
 10
-14.6521
 20
-82.6628
 10
-14.3382
 20
-82.6518
 10
-14.025
 20
-82.6737
 10
-13.7157
 20
-82.7283
 10
-13.4139
 20
-82.8148
 10
-13.1227
 20
-82.9324
 10
-12.8455
 20
-83.0799
 10
-12.5852
 20
-83.2555
 10
-12.3446
 20
-83.4573
 10
-12.1265
 20
-83.6832
 10
-11.9331
 20
-83.9306
 10
-11.7667
 20
-84.1969
 10
-11.6291
 20
-84.4792
 10
-11.5217
 20
-84.7742
 10
-11.4457
 20
-85.0789
 10
-11.402
 20
-85.3899
 10
-11.3911
 20
-85.7037
 10
-11.413
 20
-86.017
 10
-11.4675
 20
-86.3262
 10
-11.554
 20
-86.6281
 10
-11.6717
 20
-86.9192
 10
-11.8191
 20
-87.1965
 10
-11.9947
 20
-87.4568
 10
-12.1965
 20
-87.6974
 10
-12.4224
 20
-87.9155
 10
-12.6699
 20
-88.1088
 10
-12.9362
 20
-88.2752
 10
-13.2184
 20
-88.4129
 10
-13.5135
 20
-88.5203
 10
-13.8182
 20
-88.5962
 10
-14.1291
 20
-88.6399
 10
-14.443
 20
-88.6509
  0
LWPOLYLINE
100
AcDbEntity
  8
0
100
AcDbPolyline
 90
60
 70
1
 10
8.33009
 20
-96.4596
 10
7.7683
 20
-96.3605
 10
7.21994
 20
-96.2033
 10
6.69101
 20
-95.9896
 10
6.18732
 20
-95.7218
 10
5.71439
 20
-95.4028
 10
5.27739
 20
-95.0361
 10
4.88111
 20
-94.6257
 10
4.5299
 20
-94.1762
 10
4.2276
 20
-93.6924
 10
3.97753
 20
-93.1797
 10
3.78242
 20
-92.6436
 10
3.64441
 20
-92.0901
 10
3.56502
 20
-91.5252
 10
3.54511
 20
-90.9551
 10
3.5849
 20
-90.386
 10
3.68396
 20
-89.8242
 10
3.8412
 20
-89.2758
 10
4.0549
 20
-88.7469
 10
4.32272
 20
-88.2432
 10
4.64172
 20
-87.7703
 10
5.0084
 20
-87.3333
 10
5.41876
 20
-86.937
 10
5.86829
 20
-86.5858
 10
6.35207
 20
-86.2835
 10
6.8648
 20
-86.0334
 10
7.40086
 20
-85.8383
 10
7.95437
 20
-85.7003
 10
8.51928
 20
-85.6209
 10
9.0894
 20
-85.601
 10
9.65847
 20
-85.6408
 10
10.2203
 20
-85.7399
 10
10.7686
 20
-85.8971
 10
11.2976
 20
-86.1108
 10
11.8012
 20
-86.3786
 10
12.2742
 20
-86.6976
 10
12.7112
 20
-87.0643
 10
13.1074
 20
-87.4747
 10
13.4587
 20
-87.9242
 10
13.761
 20
-88.408
 10
14.011
 20
-88.9207
 10
14.2061
 20
-89.4568
 10
14.3441
 20
-90.0103
 10
14.4235
 20
-90.5752
 10
14.4435
 20
-91.1453
 10
14.4037
 20
-91.7144
 10
14.3046
 20
-92.2762
 10
14.1474
 20
-92.8245
 10
13.9337
 20
-93.3535
 10
13.6658
 20
-93.8571
 10
13.3468
 20
-94.3301
 10
12.9802
 20
-94.7671
 10
12.5698
 20
-95.1634
 10
12.1203
 20
-95.5146
 10
11.6365
 20
-95.8169
 10
11.1238
 20
-96.0669
 10
10.5877
 20
-96.262
 10
10.0342
 20
-96.4001
 10
9.46928
 20
-96.4794
 10
8.89917
 20
-96.4994
  0
ENDSEC
  0
EOF
