  0
SECTION
  2
BLOCKS
  0
ENDSEC
  0
SECTION
  2
ENTITIES
  0
LINE
  8
0
 10
56.3391
 20
-71.1809
 11
57.8868
 21
-70.9219
  0
LINE
  8
0
 10
57.8868
 20
-70.9219
 11
59.3749
 21
-70.424
  0
LINE
  8
0
 10
59.3749
 20
-70.424
 11
60.7667
 21
-69.6994
  0
LINE
  8
0
 10
60.7667
 20
-69.6994
 11
62.0281
 21
-68.7661
  0
LINE
  8
0
 10
62.0281
 20
-68.7661
 11
63.128
 21
-67.6468
  0
LINE
  8
0
 10
63.128
 20
-67.6468
 11
64.0392
 21
-66.3693
  0
LINE
  8
0
 10
64.0392
 20
-66.3693
 11
64.7394
 21
-64.965
  0
LINE
  8
0
 10
64.7394
 20
-64.965
 11
65.2113
 21
-63.4685
  0
LINE
  8
0
 10
65.2113
 20
-63.4685
 11
65.9445
 21
-60.2922
  0
LINE
  8
0
 10
65.9445
 20
-60.2922
 11
67.6706
 21
38.5941
  0
LINE
  8
0
 10
67.6706
 20
38.5941
 11
-29.218
 21
60.9627
  0
LINE
  8
0
 10
-29.218
 20
60.9627
 11
-30.77
 21
61.1946
  0
LINE
  8
0
 10
-30.77
 20
61.1946
 11
-32.3391
 21
61.1809
  0
LINE
  8
0
 10
-32.3391
 20
61.1809
 11
-33.8868
 21
60.9219
  0
LINE
  8
0
 10
-33.8868
 20
60.9219
 11
-35.3749
 21
60.424
  0
LINE
  8
0
 10
-35.3749
 20
60.424
 11
-36.7667
 21
59.6994
  0
LINE
  8
0
 10
-36.7667
 20
59.6994
 11
-38.0281
 21
58.7661
  0
LINE
  8
0
 10
-38.0281
 20
58.7661
 11
-39.128
 21
57.6468
  0
LINE
  8
0
 10
-39.128
 20
57.6468
 11
-40.0392
 21
56.3693
  0
LINE
  8
0
 10
-40.0392
 20
56.3693
 11
-40.7394
 21
54.965
  0
LINE
  8
0
 10
-40.7394
 20
54.965
 11
-41.2113
 21
53.4685
  0
LINE
  8
0
 10
-41.2113
 20
53.4685
 11
-61.4568
 21
-34.2248
  0
LINE
  8
0
 10
-61.4568
 20
-34.2248
 11
-61.6888
 21
-35.7768
  0
LINE
  8
0
 10
-61.6888
 20
-35.7768
 11
-61.6751
 21
-37.3459
  0
LINE
  8
0
 10
-61.6751
 20
-37.3459
 11
-61.4161
 21
-38.8936
  0
LINE
  8
0
 10
-61.4161
 20
-38.8936
 11
-60.9182
 21
-40.3817
  0
LINE
  8
0
 10
-60.9182
 20
-40.3817
 11
-60.1936
 21
-41.7735
  0
LINE
  8
0
 10
-60.1936
 20
-41.7735
 11
-59.2602
 21
-43.0349
  0
LINE
  8
0
 10
-59.2602
 20
-43.0349
 11
-58.141
 21
-44.1348
  0
LINE
  8
0
 10
-58.141
 20
-44.1348
 11
-56.8635
 21
-45.046
  0
LINE
  8
0
 10
-56.8635
 20
-45.046
 11
-55.4592
 21
-45.7462
  0
LINE
  8
0
 10
-55.4592
 20
-45.7462
 11
-53.9627
 21
-46.218
  0
LINE
  8
0
 10
-53.9627
 20
-46.218
 11
53.218
 21
-70.9627
  0
LINE
  8
0
 10
53.218
 20
-70.9627
 11
54.77
 21
-71.1946
  0
LINE
  8
0
 10
54.77
 20
-71.1946
 11
56.3391
 21
-71.1809
  0
LINE
  8
0
 10
-30.812
 20
58.0665
 11
-35.7047
 21
36.874
  0
LINE
  8
0
 10
-35.7047
 20
36.874
 11
-38.7983
 21
37.5882
  0
LINE
  8
0
 10
-38.7983
 20
37.5882
 11
-33.9056
 21
58.7808
  0
LINE
  8
0
 10
-33.9056
 20
58.7808
 11
-30.812
 21
58.0665
  0
LINE
  8
0
 10
-13.4598
 20
50.9399
 11
-12.7456
 21
54.0336
  0
LINE
  8
0
 10
-12.7456
 20
54.0336
 11
17.4598
 21
47.0601
  0
LINE
  8
0
 10
17.4598
 20
47.0601
 11
16.7456
 21
43.9664
  0
LINE
  8
0
 10
16.7456
 20
43.9664
 11
-13.4598
 21
50.9399
  0
LINE
  8
0
 10
-3.70395
 20
33.5554
 11
-4.39056
 21
33.7202
  0
LINE
  8
0
 10
-4.39056
 20
33.7202
 11
-5.04295
 21
33.9905
  0
LINE
  8
0
 10
-5.04295
 20
33.9905
 11
-5.64502
 21
34.3594
  0
LINE
  8
0
 10
-5.64502
 20
34.3594
 11
-6.18198
 21
34.818
  0
LINE
  8
0
 10
-6.18198
 20
34.818
 11
-6.64056
 21
35.355
  0
LINE
  8
0
 10
-6.64056
 20
35.355
 11
-7.00952
 21
35.957
  0
LINE
  8
0
 10
-7.00952
 20
35.957
 11
-7.27974
 21
36.6094
  0
LINE
  8
0
 10
-7.27974
 20
36.6094
 11
-7.4446
 21
37.296
  0
LINE
  8
0
 10
-7.4446
 20
37.296
 11
-7.5
 21
38
  0
LINE
  8
0
 10
-7.5
 20
38
 11
-7.4446
 21
38.7039
  0
LINE
  8
0
 10
-7.4446
 20
38.7039
 11
-7.27974
 21
39.3906
  0
LINE
  8
0
 10
-7.27974
 20
39.3906
 11
-7.00952
 21
40.043
  0
LINE
  8
0
 10
-7.00952
 20
40.043
 11
-6.64056
 21
40.645
  0
LINE
  8
0
 10
-6.64056
 20
40.645
 11
-6.18198
 21
41.182
  0
LINE
  8
0
 10
-6.18198
 20
41.182
 11
-5.64502
 21
41.6406
  0
LINE
  8
0
 10
-5.64502
 20
41.6406
 11
-5.04295
 21
42.0095
  0
LINE
  8
0
 10
-5.04295
 20
42.0095
 11
-4.39056
 21
42.2798
  0
LINE
  8
0
 10
-4.39056
 20
42.2798
 11
-3.70395
 21
42.4446
  0
LINE
  8
0
 10
-3.70395
 20
42.4446
 11
-2.99998
 21
42.5
  0
LINE
  8
0
 10
-2.99998
 20
42.5
 11
-2.29604
 21
42.4446
  0
LINE
  8
0
 10
-2.29604
 20
42.4446
 11
-1.60942
 21
42.2798
  0
LINE
  8
0
 10
-1.60942
 20
42.2798
 11
-0.957031
 21
42.0095
  0
LINE
  8
0
 10
-0.957031
 20
42.0095
 11
-0.354965
 21
41.6406
  0
LINE
  8
0
 10
-0.354965
 20
41.6406
 11
0.181976
 21
41.182
  0
LINE
  8
0
 10
0.181976
 20
41.182
 11
0.640564
 21
40.645
  0
LINE
  8
0
 10
0.640564
 20
40.645
 11
1.00952
 21
40.043
  0
LINE
  8
0
 10
1.00952
 20
40.043
 11
1.27974
 21
39.3906
  0
LINE
  8
0
 10
1.27974
 20
39.3906
 11
1.4446
 21
38.7039
  0
LINE
  8
0
 10
1.4446
 20
38.7039
 11
1.5
 21
38
  0
LINE
  8
0
 10
1.5
 20
38
 11
1.4446
 21
37.296
  0
LINE
  8
0
 10
1.4446
 20
37.296
 11
1.27974
 21
36.6094
  0
LINE
  8
0
 10
1.27974
 20
36.6094
 11
1.00952
 21
35.957
  0
LINE
  8
0
 10
1.00952
 20
35.957
 11
0.640564
 21
35.355
  0
LINE
  8
0
 10
0.640564
 20
35.355
 11
0.181976
 21
34.818
  0
LINE
  8
0
 10
0.181976
 20
34.818
 11
-0.354965
 21
34.3594
  0
LINE
  8
0
 10
-0.354965
 20
34.3594
 11
-0.957031
 21
33.9905
  0
LINE
  8
0
 10
-0.957031
 20
33.9905
 11
-1.60942
 21
33.7202
  0
LINE
  8
0
 10
-1.60942
 20
33.7202
 11
-2.29604
 21
33.5554
  0
LINE
  8
0
 10
-2.29604
 20
33.5554
 11
-3
 21
33.5
  0
LINE
  8
0
 10
-3
 20
33.5
 11
-3.70395
 21
33.5554
  0
LINE
  8
0
 10
38.6011
 20
36.4814
 11
38.212
 21
36.5748
  0
LINE
  8
0
 10
38.212
 20
36.5748
 11
37.8423
 21
36.7279
  0
LINE
  8
0
 10
37.8423
 20
36.7279
 11
37.5011
 21
36.937
  0
LINE
  8
0
 10
37.5011
 20
36.937
 11
37.1969
 21
37.1969
  0
LINE
  8
0
 10
37.1969
 20
37.1969
 11
36.937
 21
37.5011
  0
LINE
  8
0
 10
36.937
 20
37.5011
 11
36.7279
 21
37.8423
  0
LINE
  8
0
 10
36.7279
 20
37.8423
 11
36.5748
 21
38.212
  0
LINE
  8
0
 10
36.5748
 20
38.212
 11
36.4814
 21
38.6011
  0
LINE
  8
0
 10
36.4814
 20
38.6011
 11
36.45
 21
39
  0
LINE
  8
0
 10
36.45
 20
39
 11
36.4814
 21
39.3989
  0
LINE
  8
0
 10
36.4814
 20
39.3989
 11
36.5748
 21
39.788
  0
LINE
  8
0
 10
36.5748
 20
39.788
 11
36.7279
 21
40.1577
  0
LINE
  8
0
 10
36.7279
 20
40.1577
 11
36.937
 21
40.4988
  0
LINE
  8
0
 10
36.937
 20
40.4988
 11
37.1969
 21
40.8031
  0
LINE
  8
0
 10
37.1969
 20
40.8031
 11
37.5011
 21
41.063
  0
LINE
  8
0
 10
37.5011
 20
41.063
 11
37.8423
 21
41.2721
  0
LINE
  8
0
 10
37.8423
 20
41.2721
 11
38.212
 21
41.4252
  0
LINE
  8
0
 10
38.212
 20
41.4252
 11
38.6011
 21
41.5186
  0
LINE
  8
0
 10
38.6011
 20
41.5186
 11
39
 21
41.55
  0
LINE
  8
0
 10
39
 20
41.55
 11
39.3989
 21
41.5186
  0
LINE
  8
0
 10
39.3989
 20
41.5186
 11
39.788
 21
41.4252
  0
LINE
  8
0
 10
39.788
 20
41.4252
 11
40.1577
 21
41.2721
  0
LINE
  8
0
 10
40.1577
 20
41.2721
 11
40.4988
 21
41.063
  0
LINE
  8
0
 10
40.4988
 20
41.063
 11
40.8031
 21
40.8031
  0
LINE
  8
0
 10
40.8031
 20
40.8031
 11
41.063
 21
40.4988
  0
LINE
  8
0
 10
41.063
 20
40.4988
 11
41.2721
 21
40.1577
  0
LINE
  8
0
 10
41.2721
 20
40.1577
 11
41.4252
 21
39.788
  0
LINE
  8
0
 10
41.4252
 20
39.788
 11
41.5186
 21
39.3989
  0
LINE
  8
0
 10
41.5186
 20
39.3989
 11
41.55
 21
39
  0
LINE
  8
0
 10
41.55
 20
39
 11
41.5186
 21
38.6011
  0
LINE
  8
0
 10
41.5186
 20
38.6011
 11
41.4252
 21
38.212
  0
LINE
  8
0
 10
41.4252
 20
38.212
 11
41.2721
 21
37.8423
  0
LINE
  8
0
 10
41.2721
 20
37.8423
 11
41.063
 21
37.5011
  0
LINE
  8
0
 10
41.063
 20
37.5011
 11
40.8031
 21
37.1969
  0
LINE
  8
0
 10
40.8031
 20
37.1969
 11
40.4988
 21
36.937
  0
LINE
  8
0
 10
40.4988
 20
36.937
 11
40.1577
 21
36.7279
  0
LINE
  8
0
 10
40.1577
 20
36.7279
 11
39.788
 21
36.5748
  0
LINE
  8
0
 10
39.788
 20
36.5748
 11
39.3989
 21
36.4814
  0
LINE
  8
0
 10
39.3989
 20
36.4814
 11
39
 21
36.45
  0
LINE
  8
0
 10
39
 20
36.45
 11
38.6011
 21
36.4814
  0
LINE
  8
0
 10
-29.9477
 20
33.2742
 11
-30.0817
 21
33.2978
  0
LINE
  8
0
 10
-30.0817
 20
33.2978
 11
-30.2125
 21
33.3353
  0
LINE
  8
0
 10
-30.2125
 20
33.3353
 11
-30.3387
 21
33.3863
  0
LINE
  8
0
 10
-30.3387
 20
33.3863
 11
-30.4588
 21
33.4502
  0
LINE
  8
0
 10
-30.4588
 20
33.4502
 11
-30.5716
 21
33.5263
  0
LINE
  8
0
 10
-30.5716
 20
33.5263
 11
-30.6759
 21
33.6137
  0
LINE
  8
0
 10
-30.6759
 20
33.6137
 11
-30.7704
 21
33.7116
  0
LINE
  8
0
 10
-30.7704
 20
33.7116
 11
-30.8542
 21
33.8188
  0
LINE
  8
0
 10
-30.8542
 20
33.8188
 11
-30.9263
 21
33.9342
  0
LINE
  8
0
 10
-30.9263
 20
33.9342
 11
-30.9859
 21
34.0565
  0
LINE
  8
0
 10
-30.9859
 20
34.0565
 11
-31.0325
 21
34.1844
  0
LINE
  8
0
 10
-31.0325
 20
34.1844
 11
-31.0654
 21
34.3165
  0
LINE
  8
0
 10
-31.0654
 20
34.3165
 11
-31.0843
 21
34.4512
  0
LINE
  8
0
 10
-31.0843
 20
34.4512
 11
-31.0891
 21
34.5872
  0
LINE
  8
0
 10
-31.0891
 20
34.5872
 11
-31.0796
 21
34.7229
  0
LINE
  8
0
 10
-31.0796
 20
34.7229
 11
-31.056
 21
34.8569
  0
LINE
  8
0
 10
-31.056
 20
34.8569
 11
-31.0184
 21
34.9877
  0
LINE
  8
0
 10
-31.0184
 20
34.9877
 11
-30.9675
 21
35.1139
  0
LINE
  8
0
 10
-30.9675
 20
35.1139
 11
-30.9036
 21
35.2341
  0
LINE
  8
0
 10
-30.9036
 20
35.2341
 11
-30.8275
 21
35.3469
  0
LINE
  8
0
 10
-30.8275
 20
35.3469
 11
-30.74
 21
35.4511
  0
LINE
  8
0
 10
-30.74
 20
35.4511
 11
-30.6422
 21
35.5456
  0
LINE
  8
0
 10
-30.6422
 20
35.5456
 11
-30.5349
 21
35.6294
  0
LINE
  8
0
 10
-30.5349
 20
35.6294
 11
-30.4195
 21
35.7015
  0
LINE
  8
0
 10
-30.4195
 20
35.7015
 11
-30.2972
 21
35.7612
  0
LINE
  8
0
 10
-30.2972
 20
35.7612
 11
-30.1694
 21
35.8077
  0
LINE
  8
0
 10
-30.1694
 20
35.8077
 11
-30.0373
 21
35.8406
  0
LINE
  8
0
 10
-30.0373
 20
35.8406
 11
-29.9026
 21
35.8596
  0
LINE
  8
0
 10
-29.9026
 20
35.8596
 11
-29.7666
 21
35.8643
  0
LINE
  8
0
 10
-29.7666
 20
35.8643
 11
-29.6308
 21
35.8548
  0
LINE
  8
0
 10
-29.6308
 20
35.8548
 11
-29.4968
 21
35.8312
  0
LINE
  8
0
 10
-29.4968
 20
35.8312
 11
-29.366
 21
35.7937
  0
LINE
  8
0
 10
-29.366
 20
35.7937
 11
-29.2399
 21
35.7427
  0
LINE
  8
0
 10
-29.2399
 20
35.7427
 11
-29.1197
 21
35.6788
  0
LINE
  8
0
 10
-29.1197
 20
35.6788
 11
-29.0069
 21
35.6027
  0
LINE
  8
0
 10
-29.0069
 20
35.6027
 11
-28.9027
 21
35.5153
  0
LINE
  8
0
 10
-28.9027
 20
35.5153
 11
-28.8082
 21
35.4174
  0
LINE
  8
0
 10
-28.8082
 20
35.4174
 11
-28.7244
 21
35.3102
  0
LINE
  8
0
 10
-28.7244
 20
35.3102
 11
-28.6523
 21
35.1947
  0
LINE
  8
0
 10
-28.6523
 20
35.1947
 11
-28.5926
 21
35.0724
  0
LINE
  8
0
 10
-28.5926
 20
35.0724
 11
-28.5461
 21
34.9446
  0
LINE
  8
0
 10
-28.5461
 20
34.9446
 11
-28.5132
 21
34.8125
  0
LINE
  8
0
 10
-28.5132
 20
34.8125
 11
-28.4942
 21
34.6778
  0
LINE
  8
0
 10
-28.4942
 20
34.6778
 11
-28.4895
 21
34.5418
  0
LINE
  8
0
 10
-28.4895
 20
34.5418
 11
-28.499
 21
34.4061
  0
LINE
  8
0
 10
-28.499
 20
34.4061
 11
-28.5226
 21
34.2721
  0
LINE
  8
0
 10
-28.5226
 20
34.2721
 11
-28.5601
 21
34.1413
  0
LINE
  8
0
 10
-28.5601
 20
34.1413
 11
-28.6111
 21
34.0151
  0
LINE
  8
0
 10
-28.6111
 20
34.0151
 11
-28.675
 21
33.895
  0
LINE
  8
0
 10
-28.675
 20
33.895
 11
-28.7511
 21
33.7821
  0
LINE
  8
0
 10
-28.7511
 20
33.7821
 11
-28.8385
 21
33.6779
  0
LINE
  8
0
 10
-28.8385
 20
33.6779
 11
-28.9364
 21
33.5834
  0
LINE
  8
0
 10
-28.9364
 20
33.5834
 11
-29.0436
 21
33.4996
  0
LINE
  8
0
 10
-29.0436
 20
33.4996
 11
-29.159
 21
33.4275
  0
LINE
  8
0
 10
-29.159
 20
33.4275
 11
-29.2813
 21
33.3678
  0
LINE
  8
0
 10
-29.2813
 20
33.3678
 11
-29.4092
 21
33.3213
  0
LINE
  8
0
 10
-29.4092
 20
33.3213
 11
-29.5412
 21
33.2884
  0
LINE
  8
0
 10
-29.5412
 20
33.2884
 11
-29.676
 21
33.2695
  0
LINE
  8
0
 10
-29.676
 20
33.2695
 11
-29.812
 21
33.2647
  0
LINE
  8
0
 10
-29.812
 20
33.2647
 11
-29.9477
 21
33.2742
  0
LINE
  8
0
 10
56.296
 20
26.5554
 11
55.6094
 21
26.7202
  0
LINE
  8
0
 10
55.6094
 20
26.7202
 11
54.957
 21
26.9905
  0
LINE
  8
0
 10
54.957
 20
26.9905
 11
54.355
 21
27.3594
  0
LINE
  8
0
 10
54.355
 20
27.3594
 11
53.818
 21
27.818
  0
LINE
  8
0
 10
53.818
 20
27.818
 11
53.3594
 21
28.355
  0
LINE
  8
0
 10
53.3594
 20
28.355
 11
52.9905
 21
28.957
  0
LINE
  8
0
 10
52.9905
 20
28.957
 11
52.7202
 21
29.6094
  0
LINE
  8
0
 10
52.7202
 20
29.6094
 11
52.5554
 21
30.296
  0
LINE
  8
0
 10
52.5554
 20
30.296
 11
52.5
 21
31
  0
LINE
  8
0
 10
52.5
 20
31
 11
52.5554
 21
31.7039
  0
LINE
  8
0
 10
52.5554
 20
31.7039
 11
52.7202
 21
32.3906
  0
LINE
  8
0
 10
52.7202
 20
32.3906
 11
52.9905
 21
33.043
  0
LINE
  8
0
 10
52.9905
 20
33.043
 11
53.3594
 21
33.645
  0
LINE
  8
0
 10
53.3594
 20
33.645
 11
53.818
 21
34.182
  0
LINE
  8
0
 10
53.818
 20
34.182
 11
54.355
 21
34.6406
  0
LINE
  8
0
 10
54.355
 20
34.6406
 11
54.957
 21
35.0095
  0
LINE
  8
0
 10
54.957
 20
35.0095
 11
55.6094
 21
35.2798
  0
LINE
  8
0
 10
55.6094
 20
35.2798
 11
56.296
 21
35.4446
  0
LINE
  8
0
 10
56.296
 20
35.4446
 11
57
 21
35.5
  0
LINE
  8
0
 10
57
 20
35.5
 11
57.7039
 21
35.4446
  0
LINE
  8
0
 10
57.7039
 20
35.4446
 11
58.3906
 21
35.2798
  0
LINE
  8
0
 10
58.3906
 20
35.2798
 11
59.043
 21
35.0095
  0
LINE
  8
0
 10
59.043
 20
35.0095
 11
59.645
 21
34.6406
  0
LINE
  8
0
 10
59.645
 20
34.6406
 11
60.182
 21
34.182
  0
LINE
  8
0
 10
60.182
 20
34.182
 11
60.6406
 21
33.645
  0
LINE
  8
0
 10
60.6406
 20
33.645
 11
61.0095
 21
33.043
  0
LINE
  8
0
 10
61.0095
 20
33.043
 11
61.2798
 21
32.3906
  0
LINE
  8
0
 10
61.2798
 20
32.3906
 11
61.4446
 21
31.7039
  0
LINE
  8
0
 10
61.4446
 20
31.7039
 11
61.5
 21
31
  0
LINE
  8
0
 10
61.5
 20
31
 11
61.4446
 21
30.296
  0
LINE
  8
0
 10
61.4446
 20
30.296
 11
61.2798
 21
29.6094
  0
LINE
  8
0
 10
61.2798
 20
29.6094
 11
61.0095
 21
28.957
  0
LINE
  8
0
 10
61.0095
 20
28.957
 11
60.6406
 21
28.355
  0
LINE
  8
0
 10
60.6406
 20
28.355
 11
60.182
 21
27.818
  0
LINE
  8
0
 10
60.182
 20
27.818
 11
59.645
 21
27.3594
  0
LINE
  8
0
 10
59.645
 20
27.3594
 11
59.043
 21
26.9905
  0
LINE
  8
0
 10
59.043
 20
26.9905
 11
58.3906
 21
26.7202
  0
LINE
  8
0
 10
58.3906
 20
26.7202
 11
57.7039
 21
26.5554
  0
LINE
  8
0
 10
57.7039
 20
26.5554
 11
57
 21
26.5
  0
LINE
  8
0
 10
57
 20
26.5
 11
56.296
 21
26.5554
  0
LINE
  8
0
 10
-4.11966
 20
7.50749
 11
1.5041
 21
31.8667
  0
LINE
  8
0
 10
1.5041
 20
31.8667
 11
16.1197
 21
28.4925
  0
LINE
  8
0
 10
16.1197
 20
28.4925
 11
10.4959
 21
4.13324
  0
LINE
  8
0
 10
10.4959
 20
4.13324
 11
-4.11966
 21
7.50749
  0
LINE
  8
0
 10
21.1011
 20
18.4814
 11
20.712
 21
18.5748
  0
LINE
  8
0
 10
20.712
 20
18.5748
 11
20.3423
 21
18.7279
  0
LINE
  8
0
 10
20.3423
 20
18.7279
 11
20.0011
 21
18.937
  0
LINE
  8
0
 10
20.0011
 20
18.937
 11
19.6969
 21
19.1969
  0
LINE
  8
0
 10
19.6969
 20
19.1969
 11
19.437
 21
19.5011
  0
LINE
  8
0
 10
19.437
 20
19.5011
 11
19.2279
 21
19.8423
  0
LINE
  8
0
 10
19.2279
 20
19.8423
 11
19.0748
 21
20.212
  0
LINE
  8
0
 10
19.0748
 20
20.212
 11
18.9814
 21
20.6011
  0
LINE
  8
0
 10
18.9814
 20
20.6011
 11
18.95
 21
21
  0
LINE
  8
0
 10
18.95
 20
21
 11
18.9814
 21
21.3989
  0
LINE
  8
0
 10
18.9814
 20
21.3989
 11
19.0748
 21
21.788
  0
LINE
  8
0
 10
19.0748
 20
21.788
 11
19.2279
 21
22.1577
  0
LINE
  8
0
 10
19.2279
 20
22.1577
 11
19.437
 21
22.4988
  0
LINE
  8
0
 10
19.437
 20
22.4988
 11
19.6969
 21
22.8031
  0
LINE
  8
0
 10
19.6969
 20
22.8031
 11
20.0011
 21
23.063
  0
LINE
  8
0
 10
20.0011
 20
23.063
 11
20.3423
 21
23.2721
  0
LINE
  8
0
 10
20.3423
 20
23.2721
 11
20.712
 21
23.4252
  0
LINE
  8
0
 10
20.712
 20
23.4252
 11
21.1011
 21
23.5186
  0
LINE
  8
0
 10
21.1011
 20
23.5186
 11
21.5
 21
23.55
  0
LINE
  8
0
 10
21.5
 20
23.55
 11
21.8989
 21
23.5186
  0
LINE
  8
0
 10
21.8989
 20
23.5186
 11
22.288
 21
23.4252
  0
LINE
  8
0
 10
22.288
 20
23.4252
 11
22.6577
 21
23.2721
  0
LINE
  8
0
 10
22.6577
 20
23.2721
 11
22.9988
 21
23.063
  0
LINE
  8
0
 10
22.9988
 20
23.063
 11
23.3031
 21
22.8031
  0
LINE
  8
0
 10
23.3031
 20
22.8031
 11
23.563
 21
22.4988
  0
LINE
  8
0
 10
23.563
 20
22.4988
 11
23.7721
 21
22.1577
  0
LINE
  8
0
 10
23.7721
 20
22.1577
 11
23.9252
 21
21.788
  0
LINE
  8
0
 10
23.9252
 20
21.788
 11
24.0186
 21
21.3989
  0
LINE
  8
0
 10
24.0186
 20
21.3989
 11
24.05
 21
21
  0
LINE
  8
0
 10
24.05
 20
21
 11
24.0186
 21
20.6011
  0
LINE
  8
0
 10
24.0186
 20
20.6011
 11
23.9252
 21
20.212
  0
LINE
  8
0
 10
23.9252
 20
20.212
 11
23.7721
 21
19.8423
  0
LINE
  8
0
 10
23.7721
 20
19.8423
 11
23.563
 21
19.5011
  0
LINE
  8
0
 10
23.563
 20
19.5011
 11
23.3031
 21
19.1969
  0
LINE
  8
0
 10
23.3031
 20
19.1969
 11
22.9988
 21
18.937
  0
LINE
  8
0
 10
22.9988
 20
18.937
 11
22.6577
 21
18.7279
  0
LINE
  8
0
 10
22.6577
 20
18.7279
 11
22.288
 21
18.5748
  0
LINE
  8
0
 10
22.288
 20
18.5748
 11
21.8989
 21
18.4814
  0
LINE
  8
0
 10
21.8989
 20
18.4814
 11
21.5
 21
18.45
  0
LINE
  8
0
 10
21.5
 20
18.45
 11
21.1011
 21
18.4814
  0
LINE
  8
0
 10
52.787
 20
1.1848
 11
51.1163
 21
1.58592
  0
LINE
  8
0
 10
51.1163
 20
1.58592
 11
49.5288
 21
2.24347
  0
LINE
  8
0
 10
49.5288
 20
2.24347
 11
48.0638
 21
3.14125
  0
LINE
  8
0
 10
48.0638
 20
3.14125
 11
46.7572
 21
4.25717
  0
LINE
  8
0
 10
46.7572
 20
4.25717
 11
45.6413
 21
5.56375
  0
LINE
  8
0
 10
45.6413
 20
5.56375
 11
44.7435
 21
7.02879
  0
LINE
  8
0
 10
44.7435
 20
7.02879
 11
44.0859
 21
8.61626
  0
LINE
  8
0
 10
44.0859
 20
8.61626
 11
43.6848
 21
10.287
  0
LINE
  8
0
 10
43.6848
 20
10.287
 11
43.55
 21
12
  0
LINE
  8
0
 10
43.55
 20
12
 11
43.6848
 21
13.713
  0
LINE
  8
0
 10
43.6848
 20
13.713
 11
44.0859
 21
15.3837
  0
LINE
  8
0
 10
44.0859
 20
15.3837
 11
44.7435
 21
16.9712
  0
LINE
  8
0
 10
44.7435
 20
16.9712
 11
45.6413
 21
18.4362
  0
LINE
  8
0
 10
45.6413
 20
18.4362
 11
46.7572
 21
19.7428
  0
LINE
  8
0
 10
46.7572
 20
19.7428
 11
48.0638
 21
20.8587
  0
LINE
  8
0
 10
48.0638
 20
20.8587
 11
49.5288
 21
21.7565
  0
LINE
  8
0
 10
49.5288
 20
21.7565
 11
51.1163
 21
22.4141
  0
LINE
  8
0
 10
51.1163
 20
22.4141
 11
52.787
 21
22.8152
  0
LINE
  8
0
 10
52.787
 20
22.8152
 11
54.5
 21
22.95
  0
LINE
  8
0
 10
54.5
 20
22.95
 11
56.213
 21
22.8152
  0
LINE
  8
0
 10
56.213
 20
22.8152
 11
57.8837
 21
22.4141
  0
LINE
  8
0
 10
57.8837
 20
22.4141
 11
59.4712
 21
21.7565
  0
LINE
  8
0
 10
59.4712
 20
21.7565
 11
60.9362
 21
20.8587
  0
LINE
  8
0
 10
60.9362
 20
20.8587
 11
62.2428
 21
19.7428
  0
LINE
  8
0
 10
62.2428
 20
19.7428
 11
63.3587
 21
18.4362
  0
LINE
  8
0
 10
63.3587
 20
18.4362
 11
64.2565
 21
16.9712
  0
LINE
  8
0
 10
64.2565
 20
16.9712
 11
64.9141
 21
15.3837
  0
LINE
  8
0
 10
64.9141
 20
15.3837
 11
65.3152
 21
13.713
  0
LINE
  8
0
 10
65.3152
 20
13.713
 11
65.45
 21
12
  0
LINE
  8
0
 10
65.45
 20
12
 11
65.3152
 21
10.287
  0
LINE
  8
0
 10
65.3152
 20
10.287
 11
64.9141
 21
8.61626
  0
LINE
  8
0
 10
64.9141
 20
8.61626
 11
64.2565
 21
7.02879
  0
LINE
  8
0
 10
64.2565
 20
7.02879
 11
63.3587
 21
5.56375
  0
LINE
  8
0
 10
63.3587
 20
5.56375
 11
62.2428
 21
4.25717
  0
LINE
  8
0
 10
62.2428
 20
4.25717
 11
60.9362
 21
3.14125
  0
LINE
  8
0
 10
60.9362
 20
3.14125
 11
59.4712
 21
2.24347
  0
LINE
  8
0
 10
59.4712
 20
2.24347
 11
57.8837
 21
1.58592
  0
LINE
  8
0
 10
57.8837
 20
1.58592
 11
56.213
 21
1.1848
  0
LINE
  8
0
 10
56.213
 20
1.1848
 11
54.5
 21
1.04999
  0
LINE
  8
0
 10
54.5
 20
1.04999
 11
52.787
 21
1.1848
  0
LINE
  8
0
 10
-47.7963
 20
-1.38658
 11
-43.2973
 21
18.1008
  0
LINE
  8
0
 10
-43.2973
 20
18.1008
 11
-40.2037
 21
17.3866
  0
LINE
  8
0
 10
-40.2037
 20
17.3866
 11
-44.7027
 21
-2.1008
  0
LINE
  8
0
 10
-44.7027
 20
-2.1008
 11
-47.7963
 21
-1.38658
  0
LINE
  8
0
 10
17.6011
 20
4.48138
 11
17.212
 21
4.5748
  0
LINE
  8
0
 10
17.212
 20
4.5748
 11
16.8423
 21
4.72792
  0
LINE
  8
0
 10
16.8423
 20
4.72792
 11
16.5011
 21
4.937
  0
LINE
  8
0
 10
16.5011
 20
4.937
 11
16.1969
 21
5.19687
  0
LINE
  8
0
 10
16.1969
 20
5.19687
 11
15.937
 21
5.50114
  0
LINE
  8
0
 10
15.937
 20
5.50114
 11
15.7279
 21
5.84232
  0
LINE
  8
0
 10
15.7279
 20
5.84232
 11
15.5748
 21
6.21201
  0
LINE
  8
0
 10
15.5748
 20
6.21201
 11
15.4814
 21
6.60109
  0
LINE
  8
0
 10
15.4814
 20
6.60109
 11
15.45
 21
7
  0
LINE
  8
0
 10
15.45
 20
7
 11
15.4814
 21
7.3989
  0
LINE
  8
0
 10
15.4814
 20
7.3989
 11
15.5748
 21
7.78798
  0
LINE
  8
0
 10
15.5748
 20
7.78798
 11
15.7279
 21
8.15767
  0
LINE
  8
0
 10
15.7279
 20
8.15767
 11
15.937
 21
8.49884
  0
LINE
  8
0
 10
15.937
 20
8.49884
 11
16.1969
 21
8.80312
  0
LINE
  8
0
 10
16.1969
 20
8.80312
 11
16.5011
 21
9.06299
  0
LINE
  8
0
 10
16.5011
 20
9.06299
 11
16.8423
 21
9.27206
  0
LINE
  8
0
 10
16.8423
 20
9.27206
 11
17.212
 21
9.42519
  0
LINE
  8
0
 10
17.212
 20
9.42519
 11
17.6011
 21
9.5186
  0
LINE
  8
0
 10
17.6011
 20
9.5186
 11
18
 21
9.54999
  0
LINE
  8
0
 10
18
 20
9.54999
 11
18.3989
 21
9.5186
  0
LINE
  8
0
 10
18.3989
 20
9.5186
 11
18.788
 21
9.42519
  0
LINE
  8
0
 10
18.788
 20
9.42519
 11
19.1577
 21
9.27206
  0
LINE
  8
0
 10
19.1577
 20
9.27206
 11
19.4988
 21
9.06299
  0
LINE
  8
0
 10
19.4988
 20
9.06299
 11
19.8031
 21
8.80312
  0
LINE
  8
0
 10
19.8031
 20
8.80312
 11
20.063
 21
8.49884
  0
LINE
  8
0
 10
20.063
 20
8.49884
 11
20.2721
 21
8.15767
  0
LINE
  8
0
 10
20.2721
 20
8.15767
 11
20.4252
 21
7.78798
  0
LINE
  8
0
 10
20.4252
 20
7.78798
 11
20.5186
 21
7.3989
  0
LINE
  8
0
 10
20.5186
 20
7.3989
 11
20.55
 21
7
  0
LINE
  8
0
 10
20.55
 20
7
 11
20.5186
 21
6.60109
  0
LINE
  8
0
 10
20.5186
 20
6.60109
 11
20.4252
 21
6.21201
  0
LINE
  8
0
 10
20.4252
 20
6.21201
 11
20.2721
 21
5.84232
  0
LINE
  8
0
 10
20.2721
 20
5.84232
 11
20.063
 21
5.50114
  0
LINE
  8
0
 10
20.063
 20
5.50114
 11
19.8031
 21
5.19687
  0
LINE
  8
0
 10
19.8031
 20
5.19687
 11
19.4988
 21
4.937
  0
LINE
  8
0
 10
19.4988
 20
4.937
 11
19.1577
 21
4.72792
  0
LINE
  8
0
 10
19.1577
 20
4.72792
 11
18.788
 21
4.5748
  0
LINE
  8
0
 10
18.788
 20
4.5748
 11
18.3989
 21
4.48138
  0
LINE
  8
0
 10
18.3989
 20
4.48138
 11
18
 21
4.45
  0
LINE
  8
0
 10
18
 20
4.45
 11
17.6011
 21
4.48138
  0
LINE
  8
0
 10
-38.1584
 20
-2.2903
 11
-38.2924
 21
-2.26668
  0
LINE
  8
0
 10
-38.2924
 20
-2.26668
 11
-38.4232
 21
-2.22917
  0
LINE
  8
0
 10
-38.4232
 20
-2.22917
 11
-38.5494
 21
-2.17819
  0
LINE
  8
0
 10
-38.5494
 20
-2.17819
 11
-38.6695
 21
-2.1143
  0
LINE
  8
0
 10
-38.6695
 20
-2.1143
 11
-38.7823
 21
-2.03822
  0
LINE
  8
0
 10
-38.7823
 20
-2.03822
 11
-38.8866
 21
-1.95074
  0
LINE
  8
0
 10
-38.8866
 20
-1.95074
 11
-38.9811
 21
-1.85287
  0
LINE
  8
0
 10
-38.9811
 20
-1.85287
 11
-39.0649
 21
-1.74564
  0
LINE
  8
0
 10
-39.0649
 20
-1.74564
 11
-39.137
 21
-1.63025
  0
LINE
  8
0
 10
-39.137
 20
-1.63025
 11
-39.1967
 21
-1.50795
  0
LINE
  8
0
 10
-39.1967
 20
-1.50795
 11
-39.2432
 21
-1.38008
  0
LINE
  8
0
 10
-39.2432
 20
-1.38008
 11
-39.2761
 21
-1.24805
  0
LINE
  8
0
 10
-39.2761
 20
-1.24805
 11
-39.295
 21
-1.1133
  0
LINE
  8
0
 10
-39.295
 20
-1.1133
 11
-39.2998
 21
-0.97731
  0
LINE
  8
0
 10
-39.2998
 20
-0.97731
 11
-39.2903
 21
-0.841568
  0
LINE
  8
0
 10
-39.2903
 20
-0.841568
 11
-39.2667
 21
-0.70755
  0
LINE
  8
0
 10
-39.2667
 20
-0.70755
 11
-39.2292
 21
-0.576752
  0
LINE
  8
0
 10
-39.2292
 20
-0.576752
 11
-39.1782
 21
-0.450592
  0
LINE
  8
0
 10
-39.1782
 20
-0.450592
 11
-39.1143
 21
-0.330444
  0
LINE
  8
0
 10
-39.1143
 20
-0.330444
 11
-39.0382
 21
-0.217636
  0
LINE
  8
0
 10
-39.0382
 20
-0.217636
 11
-38.9508
 21
-0.113388
  0
LINE
  8
0
 10
-38.9508
 20
-0.113388
 11
-38.8529
 21
-0.0188751
  0
LINE
  8
0
 10
-38.8529
 20
-0.0188751
 11
-38.7456
 21
0.0648956
  0
LINE
  8
0
 10
-38.7456
 20
0.0648956
 11
-38.6302
 21
0.136993
  0
LINE
  8
0
 10
-38.6302
 20
0.136993
 11
-38.5079
 21
0.196655
  0
LINE
  8
0
 10
-38.5079
 20
0.196655
 11
-38.3801
 21
0.243195
  0
LINE
  8
0
 10
-38.3801
 20
0.243195
 11
-38.248
 21
0.276108
  0
LINE
  8
0
 10
-38.248
 20
0.276108
 11
-38.1133
 21
0.295044
  0
LINE
  8
0
 10
-38.1133
 20
0.295044
 11
-37.9773
 21
0.299789
  0
LINE
  8
0
 10
-37.9773
 20
0.299789
 11
-37.8416
 21
0.290298
  0
LINE
  8
0
 10
-37.8416
 20
0.290298
 11
-37.7076
 21
0.266678
  0
LINE
  8
0
 10
-37.7076
 20
0.266678
 11
-37.5768
 21
0.229172
  0
LINE
  8
0
 10
-37.5768
 20
0.229172
 11
-37.4506
 21
0.178192
  0
LINE
  8
0
 10
-37.4506
 20
0.178192
 11
-37.3304
 21
0.114304
  0
LINE
  8
0
 10
-37.3304
 20
0.114304
 11
-37.2176
 21
0.0382233
  0
LINE
  8
0
 10
-37.2176
 20
0.0382233
 11
-37.1134
 21
-0.0492401
  0
LINE
  8
0
 10
-37.1134
 20
-0.0492401
 11
-37.0189
 21
-0.14711
  0
LINE
  8
0
 10
-37.0189
 20
-0.14711
 11
-36.9351
 21
-0.254349
  0
LINE
  8
0
 10
-36.9351
 20
-0.254349
 11
-36.863
 21
-0.369736
  0
LINE
  8
0
 10
-36.863
 20
-0.369736
 11
-36.8033
 21
-0.492035
  0
LINE
  8
0
 10
-36.8033
 20
-0.492035
 11
-36.7568
 21
-0.619904
  0
LINE
  8
0
 10
-36.7568
 20
-0.619904
 11
-36.7239
 21
-0.751938
  0
LINE
  8
0
 10
-36.7239
 20
-0.751938
 11
-36.7049
 21
-0.886688
  0
LINE
  8
0
 10
-36.7049
 20
-0.886688
 11
-36.7002
 21
-1.02267
  0
LINE
  8
0
 10
-36.7002
 20
-1.02267
 11
-36.7097
 21
-1.15842
  0
LINE
  8
0
 10
-36.7097
 20
-1.15842
 11
-36.7333
 21
-1.29243
  0
LINE
  8
0
 10
-36.7333
 20
-1.29243
 11
-36.7708
 21
-1.42323
  0
LINE
  8
0
 10
-36.7708
 20
-1.42323
 11
-36.8218
 21
-1.54939
  0
LINE
  8
0
 10
-36.8218
 20
-1.54939
 11
-36.8857
 21
-1.66954
  0
LINE
  8
0
 10
-36.8857
 20
-1.66954
 11
-36.9618
 21
-1.78235
  0
LINE
  8
0
 10
-36.9618
 20
-1.78235
 11
-37.0492
 21
-1.8866
  0
LINE
  8
0
 10
-37.0492
 20
-1.8866
 11
-37.1471
 21
-1.98111
  0
LINE
  8
0
 10
-37.1471
 20
-1.98111
 11
-37.2543
 21
-2.0649
  0
LINE
  8
0
 10
-37.2543
 20
-2.0649
 11
-37.3697
 21
-2.13699
  0
LINE
  8
0
 10
-37.3697
 20
-2.13699
 11
-37.4921
 21
-2.19666
  0
LINE
  8
0
 10
-37.4921
 20
-2.19666
 11
-37.6199
 21
-2.24319
  0
LINE
  8
0
 10
-37.6199
 20
-2.24319
 11
-37.7519
 21
-2.27611
  0
LINE
  8
0
 10
-37.7519
 20
-2.27611
 11
-37.8867
 21
-2.29504
  0
LINE
  8
0
 10
-37.8867
 20
-2.29504
 11
-38.0227
 21
-2.29979
  0
LINE
  8
0
 10
-38.0227
 20
-2.29979
 11
-38.1584
 21
-2.2903
  0
LINE
  8
0
 10
-2.59392
 20
-10.501
 11
-2.72792
 21
-10.4774
  0
LINE
  8
0
 10
-2.72792
 20
-10.4774
 11
-2.85872
 21
-10.4399
  0
LINE
  8
0
 10
-2.85872
 20
-10.4399
 11
-2.98489
 21
-10.3889
  0
LINE
  8
0
 10
-2.98489
 20
-10.3889
 11
-3.10504
 21
-10.325
  0
LINE
  8
0
 10
-3.10504
 20
-10.325
 11
-3.21785
 21
-10.2489
  0
LINE
  8
0
 10
-3.21785
 20
-10.2489
 11
-3.32208
 21
-10.1615
  0
LINE
  8
0
 10
-3.32208
 20
-10.1615
 11
-3.41661
 21
-10.0636
  0
LINE
  8
0
 10
-3.41661
 20
-10.0636
 11
-3.50038
 21
-9.95636
  0
LINE
  8
0
 10
-3.50038
 20
-9.95636
 11
-3.57249
 21
-9.84096
  0
LINE
  8
0
 10
-3.57249
 20
-9.84096
 11
-3.63214
 21
-9.71866
  0
LINE
  8
0
 10
-3.63214
 20
-9.71866
 11
-3.67868
 21
-9.59079
  0
LINE
  8
0
 10
-3.67868
 20
-9.59079
 11
-3.71159
 21
-9.45876
  0
LINE
  8
0
 10
-3.71159
 20
-9.45876
 11
-3.73055
 21
-9.32401
  0
LINE
  8
0
 10
-3.73055
 20
-9.32401
 11
-3.73529
 21
-9.18802
  0
LINE
  8
0
 10
-3.73529
 20
-9.18802
 11
-3.7258
 21
-9.05228
  0
LINE
  8
0
 10
-3.7258
 20
-9.05228
 11
-3.70216
 21
-8.91827
  0
LINE
  8
0
 10
-3.70216
 20
-8.91827
 11
-3.66466
 21
-8.78748
  0
LINE
  8
0
 10
-3.66466
 20
-8.78748
 11
-3.61369
 21
-8.6613
  0
LINE
  8
0
 10
-3.61369
 20
-8.6613
 11
-3.5498
 21
-8.54115
  0
LINE
  8
0
 10
-3.5498
 20
-8.54115
 11
-3.47371
 21
-8.42834
  0
LINE
  8
0
 10
-3.47371
 20
-8.42834
 11
-3.38625
 21
-8.32411
  0
LINE
  8
0
 10
-3.38625
 20
-8.32411
 11
-3.28836
 21
-8.22958
  0
LINE
  8
0
 10
-3.28836
 20
-8.22958
 11
-3.18114
 21
-8.14581
  0
LINE
  8
0
 10
-3.18114
 20
-8.14581
 11
-3.06573
 21
-8.0737
  0
LINE
  8
0
 10
-3.06573
 20
-8.0737
 11
-2.94344
 21
-8.01405
  0
LINE
  8
0
 10
-2.94344
 20
-8.01405
 11
-2.81557
 21
-7.96751
  0
LINE
  8
0
 10
-2.81557
 20
-7.96751
 11
-2.68353
 21
-7.93459
  0
LINE
  8
0
 10
-2.68353
 20
-7.93459
 11
-2.54878
 21
-7.91565
  0
LINE
  8
0
 10
-2.54878
 20
-7.91565
 11
-2.4128
 21
-7.9109
  0
LINE
  8
0
 10
-2.4128
 20
-7.9109
 11
-2.27705
 21
-7.92039
  0
LINE
  8
0
 10
-2.27705
 20
-7.92039
 11
-2.14305
 21
-7.94403
  0
LINE
  8
0
 10
-2.14305
 20
-7.94403
 11
-2.01225
 21
-7.98154
  0
LINE
  8
0
 10
-2.01225
 20
-7.98154
 11
-1.88608
 21
-8.0325
  0
LINE
  8
0
 10
-1.88608
 20
-8.0325
 11
-1.76593
 21
-8.09639
  0
LINE
  8
0
 10
-1.76593
 20
-8.09639
 11
-1.65312
 21
-8.17249
  0
LINE
  8
0
 10
-1.65312
 20
-8.17249
 11
-1.54889
 21
-8.25995
  0
LINE
  8
0
 10
-1.54889
 20
-8.25995
 11
-1.45436
 21
-8.35783
  0
LINE
  8
0
 10
-1.45436
 20
-8.35783
 11
-1.37059
 21
-8.46506
  0
LINE
  8
0
 10
-1.37059
 20
-8.46506
 11
-1.29848
 21
-8.58046
  0
LINE
  8
0
 10
-1.29848
 20
-8.58046
 11
-1.23883
 21
-8.70276
  0
LINE
  8
0
 10
-1.23883
 20
-8.70276
 11
-1.19229
 21
-8.83063
  0
LINE
  8
0
 10
-1.19229
 20
-8.83063
 11
-1.15936
 21
-8.96266
  0
LINE
  8
0
 10
-1.15936
 20
-8.96266
 11
-1.14043
 21
-9.0974
  0
LINE
  8
0
 10
-1.14043
 20
-9.0974
 11
-1.13568
 21
-9.2334
  0
LINE
  8
0
 10
-1.13568
 20
-9.2334
 11
-1.14517
 21
-9.36914
  0
LINE
  8
0
 10
-1.14517
 20
-9.36914
 11
-1.16881
 21
-9.50314
  0
LINE
  8
0
 10
-1.16881
 20
-9.50314
 11
-1.20631
 21
-9.63394
  0
LINE
  8
0
 10
-1.20631
 20
-9.63394
 11
-1.25728
 21
-9.76012
  0
LINE
  8
0
 10
-1.25728
 20
-9.76012
 11
-1.32117
 21
-9.88025
  0
LINE
  8
0
 10
-1.32117
 20
-9.88025
 11
-1.39726
 21
-9.99307
  0
LINE
  8
0
 10
-1.39726
 20
-9.99307
 11
-1.48473
 21
-10.0973
  0
LINE
  8
0
 10
-1.48473
 20
-10.0973
 11
-1.58261
 21
-10.1918
  0
LINE
  8
0
 10
-1.58261
 20
-10.1918
 11
-1.68983
 21
-10.2756
  0
LINE
  8
0
 10
-1.68983
 20
-10.2756
 11
-1.80524
 21
-10.3477
  0
LINE
  8
0
 10
-1.80524
 20
-10.3477
 11
-1.92754
 21
-10.4074
  0
LINE
  8
0
 10
-1.92754
 20
-10.4074
 11
-2.0554
 21
-10.4539
  0
LINE
  8
0
 10
-2.0554
 20
-10.4539
 11
-2.18744
 21
-10.4868
  0
LINE
  8
0
 10
-2.18744
 20
-10.4868
 11
-2.32219
 21
-10.5058
  0
LINE
  8
0
 10
-2.32219
 20
-10.5058
 11
-2.45818
 21
-10.5105
  0
LINE
  8
0
 10
-2.45818
 20
-10.5105
 11
-2.59392
 21
-10.501
  0
LINE
  8
0
 10
61.1011
 20
-20.5186
 11
60.712
 21
-20.4252
  0
LINE
  8
0
 10
60.712
 20
-20.4252
 11
60.3423
 21
-20.2721
  0
LINE
  8
0
 10
60.3423
 20
-20.2721
 11
60.0011
 21
-20.063
  0
LINE
  8
0
 10
60.0011
 20
-20.063
 11
59.6969
 21
-19.8031
  0
LINE
  8
0
 10
59.6969
 20
-19.8031
 11
59.437
 21
-19.4988
  0
LINE
  8
0
 10
59.437
 20
-19.4988
 11
59.2279
 21
-19.1577
  0
LINE
  8
0
 10
59.2279
 20
-19.1577
 11
59.0748
 21
-18.788
  0
LINE
  8
0
 10
59.0748
 20
-18.788
 11
58.9814
 21
-18.3989
  0
LINE
  8
0
 10
58.9814
 20
-18.3989
 11
58.95
 21
-18
  0
LINE
  8
0
 10
58.95
 20
-18
 11
58.9814
 21
-17.6011
  0
LINE
  8
0
 10
58.9814
 20
-17.6011
 11
59.0748
 21
-17.212
  0
LINE
  8
0
 10
59.0748
 20
-17.212
 11
59.2279
 21
-16.8423
  0
LINE
  8
0
 10
59.2279
 20
-16.8423
 11
59.437
 21
-16.5011
  0
LINE
  8
0
 10
59.437
 20
-16.5011
 11
59.6969
 21
-16.1969
  0
LINE
  8
0
 10
59.6969
 20
-16.1969
 11
60.0011
 21
-15.937
  0
LINE
  8
0
 10
60.0011
 20
-15.937
 11
60.3423
 21
-15.7279
  0
LINE
  8
0
 10
60.3423
 20
-15.7279
 11
60.712
 21
-15.5748
  0
LINE
  8
0
 10
60.712
 20
-15.5748
 11
61.1011
 21
-15.4814
  0
LINE
  8
0
 10
61.1011
 20
-15.4814
 11
61.5
 21
-15.45
  0
LINE
  8
0
 10
61.5
 20
-15.45
 11
61.8989
 21
-15.4814
  0
LINE
  8
0
 10
61.8989
 20
-15.4814
 11
62.288
 21
-15.5748
  0
LINE
  8
0
 10
62.288
 20
-15.5748
 11
62.6577
 21
-15.7279
  0
LINE
  8
0
 10
62.6577
 20
-15.7279
 11
62.9988
 21
-15.937
  0
LINE
  8
0
 10
62.9988
 20
-15.937
 11
63.3031
 21
-16.1969
  0
LINE
  8
0
 10
63.3031
 20
-16.1969
 11
63.563
 21
-16.5011
  0
LINE
  8
0
 10
63.563
 20
-16.5011
 11
63.7721
 21
-16.8423
  0
LINE
  8
0
 10
63.7721
 20
-16.8423
 11
63.9252
 21
-17.212
  0
LINE
  8
0
 10
63.9252
 20
-17.212
 11
64.0186
 21
-17.6011
  0
LINE
  8
0
 10
64.0186
 20
-17.6011
 11
64.05
 21
-18
  0
LINE
  8
0
 10
64.05
 20
-18
 11
64.0186
 21
-18.3989
  0
LINE
  8
0
 10
64.0186
 20
-18.3989
 11
63.9252
 21
-18.788
  0
LINE
  8
0
 10
63.9252
 20
-18.788
 11
63.7721
 21
-19.1577
  0
LINE
  8
0
 10
63.7721
 20
-19.1577
 11
63.563
 21
-19.4988
  0
LINE
  8
0
 10
63.563
 20
-19.4988
 11
63.3031
 21
-19.8031
  0
LINE
  8
0
 10
63.3031
 20
-19.8031
 11
62.9988
 21
-20.063
  0
LINE
  8
0
 10
62.9988
 20
-20.063
 11
62.6577
 21
-20.2721
  0
LINE
  8
0
 10
62.6577
 20
-20.2721
 11
62.288
 21
-20.4252
  0
LINE
  8
0
 10
62.288
 20
-20.4252
 11
61.8989
 21
-20.5186
  0
LINE
  8
0
 10
61.8989
 20
-20.5186
 11
61.5
 21
-20.55
  0
LINE
  8
0
 10
61.5
 20
-20.55
 11
61.1011
 21
-20.5186
  0
LINE
  8
0
 10
-56.4007
 20
-38.6562
 11
-52.2953
 21
-20.874
  0
LINE
  8
0
 10
-52.2953
 20
-20.874
 11
-49.2017
 21
-21.5882
  0
LINE
  8
0
 10
-49.2017
 20
-21.5882
 11
-53.3071
 21
-39.3705
  0
LINE
  8
0
 10
-53.3071
 20
-39.3705
 11
-56.4007
 21
-38.6562
  0
LINE
  8
0
 10
5.60109
 20
-30.0186
 11
5.21201
 21
-29.9252
  0
LINE
  8
0
 10
5.21201
 20
-29.9252
 11
4.84232
 21
-29.7721
  0
LINE
  8
0
 10
4.84232
 20
-29.7721
 11
4.50114
 21
-29.563
  0
LINE
  8
0
 10
4.50114
 20
-29.563
 11
4.19687
 21
-29.3031
  0
LINE
  8
0
 10
4.19687
 20
-29.3031
 11
3.937
 21
-28.9988
  0
LINE
  8
0
 10
3.937
 20
-28.9988
 11
3.72792
 21
-28.6577
  0
LINE
  8
0
 10
3.72792
 20
-28.6577
 11
3.5748
 21
-28.288
  0
LINE
  8
0
 10
3.5748
 20
-28.288
 11
3.48138
 21
-27.8989
  0
LINE
  8
0
 10
3.48138
 20
-27.8989
 11
3.45
 21
-27.5
  0
LINE
  8
0
 10
3.45
 20
-27.5
 11
3.48138
 21
-27.1011
  0
LINE
  8
0
 10
3.48138
 20
-27.1011
 11
3.5748
 21
-26.712
  0
LINE
  8
0
 10
3.5748
 20
-26.712
 11
3.72792
 21
-26.3423
  0
LINE
  8
0
 10
3.72792
 20
-26.3423
 11
3.937
 21
-26.0011
  0
LINE
  8
0
 10
3.937
 20
-26.0011
 11
4.19687
 21
-25.6969
  0
LINE
  8
0
 10
4.19687
 20
-25.6969
 11
4.50114
 21
-25.437
  0
LINE
  8
0
 10
4.50114
 20
-25.437
 11
4.84232
 21
-25.2279
  0
LINE
  8
0
 10
4.84232
 20
-25.2279
 11
5.21201
 21
-25.0748
  0
LINE
  8
0
 10
5.21201
 20
-25.0748
 11
5.60109
 21
-24.9814
  0
LINE
  8
0
 10
5.60109
 20
-24.9814
 11
6
 21
-24.95
  0
LINE
  8
0
 10
6
 20
-24.95
 11
6.3989
 21
-24.9814
  0
LINE
  8
0
 10
6.3989
 20
-24.9814
 11
6.78798
 21
-25.0748
  0
LINE
  8
0
 10
6.78798
 20
-25.0748
 11
7.15767
 21
-25.2279
  0
LINE
  8
0
 10
7.15767
 20
-25.2279
 11
7.49884
 21
-25.437
  0
LINE
  8
0
 10
7.49884
 20
-25.437
 11
7.80312
 21
-25.6969
  0
LINE
  8
0
 10
7.80312
 20
-25.6969
 11
8.06299
 21
-26.0011
  0
LINE
  8
0
 10
8.06299
 20
-26.0011
 11
8.27206
 21
-26.3423
  0
LINE
  8
0
 10
8.27206
 20
-26.3423
 11
8.42519
 21
-26.712
  0
LINE
  8
0
 10
8.42519
 20
-26.712
 11
8.5186
 21
-27.1011
  0
LINE
  8
0
 10
8.5186
 20
-27.1011
 11
8.54999
 21
-27.5
  0
LINE
  8
0
 10
8.54999
 20
-27.5
 11
8.5186
 21
-27.8989
  0
LINE
  8
0
 10
8.5186
 20
-27.8989
 11
8.42519
 21
-28.288
  0
LINE
  8
0
 10
8.42519
 20
-28.288
 11
8.27206
 21
-28.6577
  0
LINE
  8
0
 10
8.27206
 20
-28.6577
 11
8.06299
 21
-28.9988
  0
LINE
  8
0
 10
8.06299
 20
-28.9988
 11
7.80312
 21
-29.3031
  0
LINE
  8
0
 10
7.80312
 20
-29.3031
 11
7.49884
 21
-29.563
  0
LINE
  8
0
 10
7.49884
 20
-29.563
 11
7.15767
 21
-29.7721
  0
LINE
  8
0
 10
7.15767
 20
-29.7721
 11
6.78798
 21
-29.9252
  0
LINE
  8
0
 10
6.78798
 20
-29.9252
 11
6.3989
 21
-30.0186
  0
LINE
  8
0
 10
6.3989
 20
-30.0186
 11
5.99998
 21
-30.05
  0
LINE
  8
0
 10
5.99998
 20
-30.05
 11
5.60109
 21
-30.0186
  0
LINE
  8
0
 10
45.1011
 20
-30.0186
 11
44.712
 21
-29.9252
  0
LINE
  8
0
 10
44.712
 20
-29.9252
 11
44.3423
 21
-29.7721
  0
LINE
  8
0
 10
44.3423
 20
-29.7721
 11
44.0011
 21
-29.563
  0
LINE
  8
0
 10
44.0011
 20
-29.563
 11
43.6969
 21
-29.3031
  0
LINE
  8
0
 10
43.6969
 20
-29.3031
 11
43.437
 21
-28.9988
  0
LINE
  8
0
 10
43.437
 20
-28.9988
 11
43.2279
 21
-28.6577
  0
LINE
  8
0
 10
43.2279
 20
-28.6577
 11
43.0748
 21
-28.288
  0
LINE
  8
0
 10
43.0748
 20
-28.288
 11
42.9814
 21
-27.8989
  0
LINE
  8
0
 10
42.9814
 20
-27.8989
 11
42.95
 21
-27.5
  0
LINE
  8
0
 10
42.95
 20
-27.5
 11
42.9814
 21
-27.1011
  0
LINE
  8
0
 10
42.9814
 20
-27.1011
 11
43.0748
 21
-26.712
  0
LINE
  8
0
 10
43.0748
 20
-26.712
 11
43.2279
 21
-26.3423
  0
LINE
  8
0
 10
43.2279
 20
-26.3423
 11
43.437
 21
-26.0011
  0
LINE
  8
0
 10
43.437
 20
-26.0011
 11
43.6969
 21
-25.6969
  0
LINE
  8
0
 10
43.6969
 20
-25.6969
 11
44.0011
 21
-25.437
  0
LINE
  8
0
 10
44.0011
 20
-25.437
 11
44.3423
 21
-25.2279
  0
LINE
  8
0
 10
44.3423
 20
-25.2279
 11
44.712
 21
-25.0748
  0
LINE
  8
0
 10
44.712
 20
-25.0748
 11
45.1011
 21
-24.9814
  0
LINE
  8
0
 10
45.1011
 20
-24.9814
 11
45.5
 21
-24.95
  0
LINE
  8
0
 10
45.5
 20
-24.95
 11
45.8989
 21
-24.9814
  0
LINE
  8
0
 10
45.8989
 20
-24.9814
 11
46.288
 21
-25.0748
  0
LINE
  8
0
 10
46.288
 20
-25.0748
 11
46.6577
 21
-25.2279
  0
LINE
  8
0
 10
46.6577
 20
-25.2279
 11
46.9988
 21
-25.437
  0
LINE
  8
0
 10
46.9988
 20
-25.437
 11
47.3031
 21
-25.6969
  0
LINE
  8
0
 10
47.3031
 20
-25.6969
 11
47.563
 21
-26.0011
  0
LINE
  8
0
 10
47.563
 20
-26.0011
 11
47.7721
 21
-26.3423
  0
LINE
  8
0
 10
47.7721
 20
-26.3423
 11
47.9252
 21
-26.712
  0
LINE
  8
0
 10
47.9252
 20
-26.712
 11
48.0186
 21
-27.1011
  0
LINE
  8
0
 10
48.0186
 20
-27.1011
 11
48.05
 21
-27.5
  0
LINE
  8
0
 10
48.05
 20
-27.5
 11
48.0186
 21
-27.8989
  0
LINE
  8
0
 10
48.0186
 20
-27.8989
 11
47.9252
 21
-28.288
  0
LINE
  8
0
 10
47.9252
 20
-28.288
 11
47.7721
 21
-28.6577
  0
LINE
  8
0
 10
47.7721
 20
-28.6577
 11
47.563
 21
-28.9988
  0
LINE
  8
0
 10
47.563
 20
-28.9988
 11
47.3031
 21
-29.3031
  0
LINE
  8
0
 10
47.3031
 20
-29.3031
 11
46.9988
 21
-29.563
  0
LINE
  8
0
 10
46.9988
 20
-29.563
 11
46.6577
 21
-29.7721
  0
LINE
  8
0
 10
46.6577
 20
-29.7721
 11
46.288
 21
-29.9252
  0
LINE
  8
0
 10
46.288
 20
-29.9252
 11
45.8989
 21
-30.0186
  0
LINE
  8
0
 10
45.8989
 20
-30.0186
 11
45.5
 21
-30.05
  0
LINE
  8
0
 10
45.5
 20
-30.05
 11
45.1011
 21
-30.0186
  0
LINE
  8
0
 10
-26.7039
 20
-37.4446
 11
-27.3906
 21
-37.2798
  0
LINE
  8
0
 10
-27.3906
 20
-37.2798
 11
-28.043
 21
-37.0095
  0
LINE
  8
0
 10
-28.043
 20
-37.0095
 11
-28.645
 21
-36.6406
  0
LINE
  8
0
 10
-28.645
 20
-36.6406
 11
-29.182
 21
-36.182
  0
LINE
  8
0
 10
-29.182
 20
-36.182
 11
-29.6406
 21
-35.645
  0
LINE
  8
0
 10
-29.6406
 20
-35.645
 11
-30.0095
 21
-35.043
  0
LINE
  8
0
 10
-30.0095
 20
-35.043
 11
-30.2798
 21
-34.3906
  0
LINE
  8
0
 10
-30.2798
 20
-34.3906
 11
-30.4446
 21
-33.7039
  0
LINE
  8
0
 10
-30.4446
 20
-33.7039
 11
-30.5
 21
-33
  0
LINE
  8
0
 10
-30.5
 20
-33
 11
-30.4446
 21
-32.296
  0
LINE
  8
0
 10
-30.4446
 20
-32.296
 11
-30.2798
 21
-31.6094
  0
LINE
  8
0
 10
-30.2798
 20
-31.6094
 11
-30.0095
 21
-30.957
  0
LINE
  8
0
 10
-30.0095
 20
-30.957
 11
-29.6406
 21
-30.355
  0
LINE
  8
0
 10
-29.6406
 20
-30.355
 11
-29.182
 21
-29.818
  0
LINE
  8
0
 10
-29.182
 20
-29.818
 11
-28.645
 21
-29.3594
  0
LINE
  8
0
 10
-28.645
 20
-29.3594
 11
-28.043
 21
-28.9905
  0
LINE
  8
0
 10
-28.043
 20
-28.9905
 11
-27.3906
 21
-28.7202
  0
LINE
  8
0
 10
-27.3906
 20
-28.7202
 11
-26.7039
 21
-28.5554
  0
LINE
  8
0
 10
-26.7039
 20
-28.5554
 11
-26
 21
-28.5
  0
LINE
  8
0
 10
-26
 20
-28.5
 11
-25.296
 21
-28.5554
  0
LINE
  8
0
 10
-25.296
 20
-28.5554
 11
-24.6094
 21
-28.7202
  0
LINE
  8
0
 10
-24.6094
 20
-28.7202
 11
-23.957
 21
-28.9905
  0
LINE
  8
0
 10
-23.957
 20
-28.9905
 11
-23.355
 21
-29.3594
  0
LINE
  8
0
 10
-23.355
 20
-29.3594
 11
-22.818
 21
-29.818
  0
LINE
  8
0
 10
-22.818
 20
-29.818
 11
-22.3594
 21
-30.355
  0
LINE
  8
0
 10
-22.3594
 20
-30.355
 11
-21.9905
 21
-30.957
  0
LINE
  8
0
 10
-21.9905
 20
-30.957
 11
-21.7202
 21
-31.6094
  0
LINE
  8
0
 10
-21.7202
 20
-31.6094
 11
-21.5554
 21
-32.296
  0
LINE
  8
0
 10
-21.5554
 20
-32.296
 11
-21.5
 21
-33
  0
LINE
  8
0
 10
-21.5
 20
-33
 11
-21.5554
 21
-33.7039
  0
LINE
  8
0
 10
-21.5554
 20
-33.7039
 11
-21.7202
 21
-34.3906
  0
LINE
  8
0
 10
-21.7202
 20
-34.3906
 11
-21.9905
 21
-35.043
  0
LINE
  8
0
 10
-21.9905
 20
-35.043
 11
-22.3594
 21
-35.645
  0
LINE
  8
0
 10
-22.3594
 20
-35.645
 11
-22.818
 21
-36.182
  0
LINE
  8
0
 10
-22.818
 20
-36.182
 11
-23.355
 21
-36.6406
  0
LINE
  8
0
 10
-23.355
 20
-36.6406
 11
-23.957
 21
-37.0095
  0
LINE
  8
0
 10
-23.957
 20
-37.0095
 11
-24.6094
 21
-37.2798
  0
LINE
  8
0
 10
-24.6094
 20
-37.2798
 11
-25.296
 21
-37.4446
  0
LINE
  8
0
 10
-25.296
 20
-37.4446
 11
-26
 21
-37.5
  0
LINE
  8
0
 10
-26
 20
-37.5
 11
-26.7039
 21
-37.4446
  0
LINE
  8
0
 10
9
 20
-52.5
 11
7.6703
 21
-52.3953
  0
LINE
  8
0
 10
7.6703
 20
-52.3953
 11
6.37335
 21
-52.084
  0
LINE
  8
0
 10
6.37335
 20
-52.084
 11
5.14107
 21
-51.5735
  0
LINE
  8
0
 10
5.14107
 20
-51.5735
 11
4.00381
 21
-50.8766
  0
LINE
  8
0
 10
4.00381
 20
-50.8766
 11
2.98958
 21
-50.0104
  0
LINE
  8
0
 10
2.98958
 20
-50.0104
 11
2.12335
 21
-48.9962
  0
LINE
  8
0
 10
2.12335
 20
-48.9962
 11
1.42644
 21
-47.8589
  0
LINE
  8
0
 10
1.42644
 20
-47.8589
 11
0.916016
 21
-46.6266
  0
LINE
  8
0
 10
0.916016
 20
-46.6266
 11
0.604645
 21
-45.3297
  0
LINE
  8
0
 10
0.604645
 20
-45.3297
 11
0.5
 21
-44
  0
LINE
  8
0
 10
0.5
 20
-44
 11
0.604645
 21
-42.6703
  0
LINE
  8
0
 10
0.604645
 20
-42.6703
 11
0.916016
 21
-41.3734
  0
LINE
  8
0
 10
0.916016
 20
-41.3734
 11
1.42644
 21
-40.1411
  0
LINE
  8
0
 10
1.42644
 20
-40.1411
 11
2.12335
 21
-39.0038
  0
LINE
  8
0
 10
2.12335
 20
-39.0038
 11
2.98958
 21
-37.9896
  0
LINE
  8
0
 10
2.98958
 20
-37.9896
 11
4.00381
 21
-37.1234
  0
LINE
  8
0
 10
4.00381
 20
-37.1234
 11
5.14107
 21
-36.4264
  0
LINE
  8
0
 10
5.14107
 20
-36.4264
 11
6.37335
 21
-35.916
  0
LINE
  8
0
 10
6.37335
 20
-35.916
 11
7.6703
 21
-35.6046
  0
LINE
  8
0
 10
7.6703
 20
-35.6046
 11
9
 21
-35.5
  0
LINE
  8
0
 10
9
 20
-35.5
 11
27
 21
-35.5
  0
LINE
  8
0
 10
27
 20
-35.5
 11
28.3297
 21
-35.6046
  0
LINE
  8
0
 10
28.3297
 20
-35.6046
 11
29.6266
 21
-35.916
  0
LINE
  8
0
 10
29.6266
 20
-35.916
 11
30.8589
 21
-36.4264
  0
LINE
  8
0
 10
30.8589
 20
-36.4264
 11
31.9962
 21
-37.1234
  0
LINE
  8
0
 10
31.9962
 20
-37.1234
 11
33.0104
 21
-37.9896
  0
LINE
  8
0
 10
33.0104
 20
-37.9896
 11
33.8766
 21
-39.0038
  0
LINE
  8
0
 10
33.8766
 20
-39.0038
 11
34.5735
 21
-40.1411
  0
LINE
  8
0
 10
34.5735
 20
-40.1411
 11
35.084
 21
-41.3734
  0
LINE
  8
0
 10
35.084
 20
-41.3734
 11
35.3953
 21
-42.6703
  0
LINE
  8
0
 10
35.3953
 20
-42.6703
 11
35.5
 21
-44
  0
LINE
  8
0
 10
35.5
 20
-44
 11
35.3953
 21
-45.3297
  0
LINE
  8
0
 10
35.3953
 20
-45.3297
 11
35.084
 21
-46.6266
  0
LINE
  8
0
 10
35.084
 20
-46.6266
 11
34.5735
 21
-47.8589
  0
LINE
  8
0
 10
34.5735
 20
-47.8589
 11
33.8766
 21
-48.9962
  0
LINE
  8
0
 10
33.8766
 20
-48.9962
 11
33.0104
 21
-50.0104
  0
LINE
  8
0
 10
33.0104
 20
-50.0104
 11
31.9962
 21
-50.8766
  0
LINE
  8
0
 10
31.9962
 20
-50.8766
 11
30.8589
 21
-51.5735
  0
LINE
  8
0
 10
30.8589
 20
-51.5735
 11
29.6266
 21
-52.084
  0
LINE
  8
0
 10
29.6266
 20
-52.084
 11
28.3297
 21
-52.3953
  0
LINE
  8
0
 10
28.3297
 20
-52.3953
 11
27
 21
-52.5
  0
LINE
  8
0
 10
27
 20
-52.5
 11
9
 21
-52.5
  0
LINE
  8
0
 10
-34.5367
 20
-43.7349
 11
-33.8225
 21
-40.6413
  0
LINE
  8
0
 10
-33.8225
 20
-40.6413
 11
-9.46326
 21
-46.2651
  0
LINE
  8
0
 10
-9.46326
 20
-46.2651
 11
-10.1775
 21
-49.3587
  0
LINE
  8
0
 10
-10.1775
 20
-49.3587
 11
-34.5367
 21
-43.7349
  0
LINE
  8
0
 10
54.296
 20
-60.4446
 11
53.6094
 21
-60.2798
  0
LINE
  8
0
 10
53.6094
 20
-60.2798
 11
52.957
 21
-60.0095
  0
LINE
  8
0
 10
52.957
 20
-60.0095
 11
52.355
 21
-59.6406
  0
LINE
  8
0
 10
52.355
 20
-59.6406
 11
51.818
 21
-59.182
  0
LINE
  8
0
 10
51.818
 20
-59.182
 11
51.3594
 21
-58.645
  0
LINE
  8
0
 10
51.3594
 20
-58.645
 11
50.9905
 21
-58.043
  0
LINE
  8
0
 10
50.9905
 20
-58.043
 11
50.7202
 21
-57.3906
  0
LINE
  8
0
 10
50.7202
 20
-57.3906
 11
50.5554
 21
-56.7039
  0
LINE
  8
0
 10
50.5554
 20
-56.7039
 11
50.5
 21
-56
  0
LINE
  8
0
 10
50.5
 20
-56
 11
50.5554
 21
-55.296
  0
LINE
  8
0
 10
50.5554
 20
-55.296
 11
50.7202
 21
-54.6094
  0
LINE
  8
0
 10
50.7202
 20
-54.6094
 11
50.9905
 21
-53.957
  0
LINE
  8
0
 10
50.9905
 20
-53.957
 11
51.3594
 21
-53.355
  0
LINE
  8
0
 10
51.3594
 20
-53.355
 11
51.818
 21
-52.818
  0
LINE
  8
0
 10
51.818
 20
-52.818
 11
52.355
 21
-52.3594
  0
LINE
  8
0
 10
52.355
 20
-52.3594
 11
52.957
 21
-51.9905
  0
LINE
  8
0
 10
52.957
 20
-51.9905
 11
53.6094
 21
-51.7202
  0
LINE
  8
0
 10
53.6094
 20
-51.7202
 11
54.296
 21
-51.5554
  0
LINE
  8
0
 10
54.296
 20
-51.5554
 11
55
 21
-51.5
  0
LINE
  8
0
 10
55
 20
-51.5
 11
55.7039
 21
-51.5554
  0
LINE
  8
0
 10
55.7039
 20
-51.5554
 11
56.3906
 21
-51.7202
  0
LINE
  8
0
 10
56.3906
 20
-51.7202
 11
57.043
 21
-51.9905
  0
LINE
  8
0
 10
57.043
 20
-51.9905
 11
57.645
 21
-52.3594
  0
LINE
  8
0
 10
57.645
 20
-52.3594
 11
58.182
 21
-52.818
  0
LINE
  8
0
 10
58.182
 20
-52.818
 11
58.6406
 21
-53.355
  0
LINE
  8
0
 10
58.6406
 20
-53.355
 11
59.0095
 21
-53.957
  0
LINE
  8
0
 10
59.0095
 20
-53.957
 11
59.2798
 21
-54.6094
  0
LINE
  8
0
 10
59.2798
 20
-54.6094
 11
59.4446
 21
-55.296
  0
LINE
  8
0
 10
59.4446
 20
-55.296
 11
59.5
 21
-56
  0
LINE
  8
0
 10
59.5
 20
-56
 11
59.4446
 21
-56.7039
  0
LINE
  8
0
 10
59.4446
 20
-56.7039
 11
59.2798
 21
-57.3906
  0
LINE
  8
0
 10
59.2798
 20
-57.3906
 11
59.0095
 21
-58.043
  0
LINE
  8
0
 10
59.0095
 20
-58.043
 11
58.6406
 21
-58.645
  0
LINE
  8
0
 10
58.6406
 20
-58.645
 11
58.182
 21
-59.182
  0
LINE
  8
0
 10
58.182
 20
-59.182
 11
57.645
 21
-59.6406
  0
LINE
  8
0
 10
57.645
 20
-59.6406
 11
57.043
 21
-60.0095
  0
LINE
  8
0
 10
57.043
 20
-60.0095
 11
56.3906
 21
-60.2798
  0
LINE
  8
0
 10
56.3906
 20
-60.2798
 11
55.7039
 21
-60.4446
  0
LINE
  8
0
 10
55.7039
 20
-60.4446
 11
55
 21
-60.5
  0
LINE
  8
0
 10
55
 20
-60.5
 11
54.296
 21
-60.4446
  0
ENDSEC
  0
SECTION
  2
OBJECTS
  0
DICTIONARY
  0
ENDSEC
  0
EOF
