999
DXF from OpenSCAD
  0
SECTION
  2
HEADER
  9
$ACADVER
  1
AC1006
  9
$INSBASE
 10
0.0
 20
0.0
 30
0.0
  9
$EXTMIN
 10
-61.6888
 20
-71.1946
  9
$EXTMAX
 10
67.6706
 20
61.1946
  9
$LINMIN
 10
-61.6888
 20
-71.1946
  9
$LINMAX
 10
67.6706
 20
61.1946
  0
ENDSEC
  0
SECTION
  2
TABLES
  0
TABLE
  2
LTYPE
 70
1
  0
LTYPE
  2
CONTINUOUS
 70
64
  3
Solid line
 72
65
 73
0
 40
0.000000
  0
ENDTAB
  0
TABLE
  2
LAYER
 70
6
  0
LAYER
  2
0
 70
64
 62
7
  6
CONTINUOUS
  0
ENDTAB
  0
TABLE
  2
STYLE
 70
0
  0
ENDTAB
  0
ENDSEC
  0
SECTION
  2
BLOCKS
  0
ENDSEC
  0
SECTION
  2
ENTITIES
  0
LWPOLYLINE
100
AcDbEntity
  8
0
100
AcDbPolyline
 90
35
 70
1
 10
56.3391
 20
-71.1809
 10
57.8868
 20
-70.9219
 10
59.3749
 20
-70.424
 10
60.7668
 20
-69.6994
 10
62.0281
 20
-68.7661
 10
63.128
 20
-67.6468
 10
64.0392
 20
-66.3693
 10
64.7394
 20
-64.965
 10
65.2113
 20
-63.4685
 10
65.9445
 20
-60.2922
 10
67.6706
 20
38.5942
 10
-29.218
 20
60.9627
 10
-30.77
 20
61.1946
 10
-32.3391
 20
61.1809
 10
-33.8868
 20
60.9219
 10
-35.3749
 20
60.424
 10
-36.7668
 20
59.6994
 10
-38.0281
 20
58.7661
 10
-39.128
 20
57.6468
 10
-40.0392
 20
56.3693
 10
-40.7394
 20
54.965
 10
-41.2113
 20
53.4685
 10
-61.4569
 20
-34.2248
 10
-61.6888
 20
-35.7768
 10
-61.6751
 20
-37.3459
 10
-61.4161
 20
-38.8936
 10
-60.9182
 20
-40.3817
 10
-60.1936
 20
-41.7735
 10
-59.2602
 20
-43.0349
 10
-58.141
 20
-44.1348
 10
-56.8635
 20
-45.046
 10
-55.4592
 20
-45.7462
 10
-53.9627
 20
-46.218
 10
53.218
 20
-70.9627
 10
54.77
 20
-71.1946
  0
LWPOLYLINE
100
AcDbEntity
  8
0
100
AcDbPolyline
 90
4
 70
1
 10
-38.7983
 20
37.5882
 10
-33.9056
 20
58.7808
 10
-30.812
 20
58.0665
 10
-35.7047
 20
36.874
  0
LWPOLYLINE
100
AcDbEntity
  8
0
100
AcDbPolyline
 90
4
 70
1
 10
-13.4598
 20
50.9399
 10
-12.7456
 20
54.0336
 10
17.4598
 20
47.0601
 10
16.7456
 20
43.9664
  0
LWPOLYLINE
100
AcDbEntity
  8
0
100
AcDbPolyline
 90
40
 70
1
 10
-3.70395
 20
33.5554
 10
-4.39058
 20
33.7202
 10
-5.04296
 20
33.9905
 10
-5.64503
 20
34.3594
 10
-6.18198
 20
34.818
 10
-6.64058
 20
35.355
 10
-7.00953
 20
35.957
 10
-7.27975
 20
36.6094
 10
-7.4446
 20
37.296
 10
-7.5
 20
38
 10
-7.4446
 20
38.704
 10
-7.27975
 20
39.3906
 10
-7.00953
 20
40.043
 10
-6.64058
 20
40.645
 10
-6.18198
 20
41.182
 10
-5.64503
 20
41.6406
 10
-5.04296
 20
42.0095
 10
-4.39058
 20
42.2798
 10
-3.70395
 20
42.4446
 10
-3
 20
42.5
 10
-2.29604
 20
42.4446
 10
-1.60942
 20
42.2798
 10
-0.957043
 20
42.0095
 10
-0.354966
 20
41.6406
 10
0.18198
 20
41.182
 10
0.640576
 20
40.645
 10
1.00953
 20
40.043
 10
1.27975
 20
39.3906
 10
1.4446
 20
38.704
 10
1.5
 20
38
 10
1.4446
 20
37.296
 10
1.27975
 20
36.6094
 10
1.00953
 20
35.957
 10
0.640576
 20
35.355
 10
0.18198
 20
34.818
 10
-0.354966
 20
34.3594
 10
-0.957043
 20
33.9905
 10
-1.60942
 20
33.7202
 10
-2.29604
 20
33.5554
 10
-3
 20
33.5
  0
LWPOLYLINE
100
AcDbEntity
  8
0
100
AcDbPolyline
 90
40
 70
1
 10
38.6011
 20
36.4814
 10
38.212
 20
36.5748
 10
37.8423
 20
36.7279
 10
37.5011
 20
36.937
 10
37.1969
 20
37.1969
 10
36.937
 20
37.5011
 10
36.7279
 20
37.8423
 10
36.5748
 20
38.212
 10
36.4814
 20
38.6011
 10
36.45
 20
39
 10
36.4814
 20
39.3989
 10
36.5748
 20
39.788
 10
36.7279
 20
40.1577
 10
36.937
 20
40.4989
 10
37.1969
 20
40.8031
 10
37.5011
 20
41.063
 10
37.8423
 20
41.2721
 10
38.212
 20
41.4252
 10
38.6011
 20
41.5186
 10
39
 20
41.55
 10
39.3989
 20
41.5186
 10
39.788
 20
41.4252
 10
40.1577
 20
41.2721
 10
40.4989
 20
41.063
 10
40.8031
 20
40.8031
 10
41.063
 20
40.4989
 10
41.2721
 20
40.1577
 10
41.4252
 20
39.788
 10
41.5186
 20
39.3989
 10
41.55
 20
39
 10
41.5186
 20
38.6011
 10
41.4252
 20
38.212
 10
41.2721
 20
37.8423
 10
41.063
 20
37.5011
 10
40.8031
 20
37.1969
 10
40.4989
 20
36.937
 10
40.1577
 20
36.7279
 10
39.788
 20
36.5748
 10
39.3989
 20
36.4814
 10
39
 20
36.45
  0
LWPOLYLINE
100
AcDbEntity
  8
0
100
AcDbPolyline
 90
60
 70
1
 10
-29.9477
 20
33.2742
 10
-30.0817
 20
33.2978
 10
-30.2125
 20
33.3353
 10
-30.3387
 20
33.3863
 10
-30.4588
 20
33.4502
 10
-30.5716
 20
33.5263
 10
-30.6759
 20
33.6137
 10
-30.7704
 20
33.7116
 10
-30.8542
 20
33.8189
 10
-30.9263
 20
33.9343
 10
-30.9859
 20
34.0566
 10
-31.0325
 20
34.1844
 10
-31.0654
 20
34.3165
 10
-31.0843
 20
34.4512
 10
-31.0891
 20
34.5872
 10
-31.0796
 20
34.7229
 10
-31.056
 20
34.8569
 10
-31.0185
 20
34.9877
 10
-30.9675
 20
35.1139
 10
-30.9036
 20
35.2341
 10
-30.8275
 20
35.3469
 10
-30.74
 20
35.4511
 10
-30.6422
 20
35.5456
 10
-30.5349
 20
35.6294
 10
-30.4195
 20
35.7015
 10
-30.2972
 20
35.7612
 10
-30.1694
 20
35.8077
 10
-30.0373
 20
35.8406
 10
-29.9026
 20
35.8596
 10
-29.7666
 20
35.8643
 10
-29.6309
 20
35.8548
 10
-29.4969
 20
35.8312
 10
-29.366
 20
35.7937
 10
-29.2399
 20
35.7427
 10
-29.1197
 20
35.6788
 10
-29.0069
 20
35.6027
 10
-28.9027
 20
35.5153
 10
-28.8082
 20
35.4174
 10
-28.7244
 20
35.3102
 10
-28.6523
 20
35.1948
 10
-28.5926
 20
35.0725
 10
-28.5461
 20
34.9446
 10
-28.5132
 20
34.8126
 10
-28.4942
 20
34.6778
 10
-28.4895
 20
34.5418
 10
-28.499
 20
34.4061
 10
-28.5226
 20
34.2721
 10
-28.5601
 20
34.1413
 10
-28.6111
 20
34.0151
 10
-28.675
 20
33.895
 10
-28.7511
 20
33.7821
 10
-28.8385
 20
33.6779
 10
-28.9364
 20
33.5834
 10
-29.0436
 20
33.4996
 10
-29.159
 20
33.4275
 10
-29.2813
 20
33.3679
 10
-29.4092
 20
33.3213
 10
-29.5412
 20
33.2884
 10
-29.676
 20
33.2695
 10
-29.812
 20
33.2647
  0
LWPOLYLINE
100
AcDbEntity
  8
0
100
AcDbPolyline
 90
40
 70
1
 10
56.296
 20
26.5554
 10
55.6094
 20
26.7202
 10
54.957
 20
26.9905
 10
54.355
 20
27.3594
 10
53.818
 20
27.818
 10
53.3594
 20
28.355
 10
52.9905
 20
28.957
 10
52.7202
 20
29.6094
 10
52.5554
 20
30.296
 10
52.5
 20
31
 10
52.5554
 20
31.704
 10
52.7202
 20
32.3906
 10
52.9905
 20
33.043
 10
53.3594
 20
33.645
 10
53.818
 20
34.182
 10
54.355
 20
34.6406
 10
54.957
 20
35.0095
 10
55.6094
 20
35.2798
 10
56.296
 20
35.4446
 10
57
 20
35.5
 10
57.704
 20
35.4446
 10
58.3906
 20
35.2798
 10
59.043
 20
35.0095
 10
59.645
 20
34.6406
 10
60.182
 20
34.182
 10
60.6406
 20
33.645
 10
61.0095
 20
33.043
 10
61.2798
 20
32.3906
 10
61.4446
 20
31.704
 10
61.5
 20
31
 10
61.4446
 20
30.296
 10
61.2798
 20
29.6094
 10
61.0095
 20
28.957
 10
60.6406
 20
28.355
 10
60.182
 20
27.818
 10
59.645
 20
27.3594
 10
59.043
 20
26.9905
 10
58.3906
 20
26.7202
 10
57.704
 20
26.5554
 10
57
 20
26.5
  0
LWPOLYLINE
100
AcDbEntity
  8
0
100
AcDbPolyline
 90
4
 70
1
 10
-4.11966
 20
7.50751
 10
1.50411
 20
31.8668
 10
16.1197
 20
28.4925
 10
10.4959
 20
4.13324
  0
LWPOLYLINE
100
AcDbEntity
  8
0
100
AcDbPolyline
 90
40
 70
1
 10
21.1011
 20
18.4814
 10
20.712
 20
18.5748
 10
20.3423
 20
18.7279
 10
20.0011
 20
18.937
 10
19.6969
 20
19.1969
 10
19.437
 20
19.5011
 10
19.2279
 20
19.8423
 10
19.0748
 20
20.212
 10
18.9814
 20
20.6011
 10
18.95
 20
21
 10
18.9814
 20
21.3989
 10
19.0748
 20
21.788
 10
19.2279
 20
22.1577
 10
19.437
 20
22.4989
 10
19.6969
 20
22.8031
 10
20.0011
 20
23.063
 10
20.3423
 20
23.2721
 10
20.712
 20
23.4252
 10
21.1011
 20
23.5186
 10
21.5
 20
23.55
 10
21.8989
 20
23.5186
 10
22.288
 20
23.4252
 10
22.6577
 20
23.2721
 10
22.9989
 20
23.063
 10
23.3031
 20
22.8031
 10
23.563
 20
22.4989
 10
23.7721
 20
22.1577
 10
23.9252
 20
21.788
 10
24.0186
 20
21.3989
 10
24.05
 20
21
 10
24.0186
 20
20.6011
 10
23.9252
 20
20.212
 10
23.7721
 20
19.8423
 10
23.563
 20
19.5011
 10
23.3031
 20
19.1969
 10
22.9989
 20
18.937
 10
22.6577
 20
18.7279
 10
22.288
 20
18.5748
 10
21.8989
 20
18.4814
 10
21.5
 20
18.45
  0
LWPOLYLINE
100
AcDbEntity
  8
0
100
AcDbPolyline
 90
40
 70
1
 10
52.787
 20
1.18481
 10
51.1163
 20
1.58593
 10
49.5288
 20
2.24348
 10
48.0638
 20
3.14126
 10
46.7572
 20
4.25718
 10
45.6413
 20
5.56375
 10
44.7435
 20
7.0288
 10
44.0859
 20
8.61626
 10
43.6848
 20
10.287
 10
43.55
 20
12
 10
43.6848
 20
13.713
 10
44.0859
 20
15.3837
 10
44.7435
 20
16.9712
 10
45.6413
 20
18.4362
 10
46.7572
 20
19.7428
 10
48.0638
 20
20.8587
 10
49.5288
 20
21.7565
 10
51.1163
 20
22.4141
 10
52.787
 20
22.8152
 10
54.5
 20
22.95
 10
56.213
 20
22.8152
 10
57.8837
 20
22.4141
 10
59.4712
 20
21.7565
 10
60.9362
 20
20.8587
 10
62.2428
 20
19.7428
 10
63.3587
 20
18.4362
 10
64.2565
 20
16.9712
 10
64.9141
 20
15.3837
 10
65.3152
 20
13.713
 10
65.45
 20
12
 10
65.3152
 20
10.287
 10
64.9141
 20
8.61626
 10
64.2565
 20
7.0288
 10
63.3587
 20
5.56375
 10
62.2428
 20
4.25718
 10
60.9362
 20
3.14126
 10
59.4712
 20
2.24348
 10
57.8837
 20
1.58593
 10
56.213
 20
1.18481
 10
54.5
 20
1.05
  0
LWPOLYLINE
100
AcDbEntity
  8
0
100
AcDbPolyline
 90
4
 70
1
 10
-47.7963
 20
-1.38659
 10
-43.2973
 20
18.1008
 10
-40.2037
 20
17.3866
 10
-44.7027
 20
-2.10081
  0
LWPOLYLINE
100
AcDbEntity
  8
0
100
AcDbPolyline
 90
40
 70
1
 10
17.6011
 20
4.48139
 10
17.212
 20
4.57481
 10
16.8423
 20
4.72793
 10
16.5011
 20
4.93701
 10
16.1969
 20
5.19688
 10
15.937
 20
5.50115
 10
15.7279
 20
5.84232
 10
15.5748
 20
6.21201
 10
15.4814
 20
6.60109
 10
15.45
 20
7
 10
15.4814
 20
7.39891
 10
15.5748
 20
7.78799
 10
15.7279
 20
8.15768
 10
15.937
 20
8.49885
 10
16.1969
 20
8.80312
 10
16.5011
 20
9.06299
 10
16.8423
 20
9.27207
 10
17.212
 20
9.42519
 10
17.6011
 20
9.51861
 10
18
 20
9.55
 10
18.3989
 20
9.51861
 10
18.788
 20
9.42519
 10
19.1577
 20
9.27207
 10
19.4989
 20
9.06299
 10
19.8031
 20
8.80312
 10
20.063
 20
8.49885
 10
20.2721
 20
8.15768
 10
20.4252
 20
7.78799
 10
20.5186
 20
7.39891
 10
20.55
 20
7
 10
20.5186
 20
6.60109
 10
20.4252
 20
6.21201
 10
20.2721
 20
5.84232
 10
20.063
 20
5.50115
 10
19.8031
 20
5.19688
 10
19.4989
 20
4.93701
 10
19.1577
 20
4.72793
 10
18.788
 20
4.57481
 10
18.3989
 20
4.48139
 10
18
 20
4.45
  0
LWPOLYLINE
100
AcDbEntity
  8
0
100
AcDbPolyline
 90
60
 70
1
 10
-38.1584
 20
-2.29031
 10
-38.2924
 20
-2.26668
 10
-38.4232
 20
-2.22917
 10
-38.5494
 20
-2.1782
 10
-38.6695
 20
-2.11432
 10
-38.7824
 20
-2.03823
 10
-38.8866
 20
-1.95076
 10
-38.9811
 20
-1.85288
 10
-39.0649
 20
-1.74565
 10
-39.137
 20
-1.63025
 10
-39.1967
 20
-1.50795
 10
-39.2432
 20
-1.38008
 10
-39.2761
 20
-1.24805
 10
-39.2951
 20
-1.1133
 10
-39.2998
 20
-0.977311
 10
-39.2903
 20
-0.841569
 10
-39.2667
 20
-0.707564
 10
-39.2292
 20
-0.576762
 10
-39.1782
 20
-0.450597
 10
-39.1143
 20
-0.330451
 10
-39.0382
 20
-0.217641
 10
-38.9508
 20
-0.113403
 10
-38.8529
 20
-0.0188784
 10
-38.7456
 20
0.0648969
 10
-38.6303
 20
0.137005
 10
-38.5079
 20
0.196656
 10
-38.3801
 20
0.243196
 10
-38.2481
 20
0.276115
 10
-38.1133
 20
0.295053
 10
-37.9773
 20
0.299801
 10
-37.8416
 20
0.29031
 10
-37.7076
 20
0.26668
 10
-37.5768
 20
0.229174
 10
-37.4506
 20
0.1782
 10
-37.3305
 20
0.114317
 10
-37.2176
 20
0.0382259
 10
-37.1134
 20
-0.0492406
 10
-37.0189
 20
-0.147124
 10
-36.9351
 20
-0.254351
 10
-36.863
 20
-0.369748
 10
-36.8033
 20
-0.49205
 10
-36.7568
 20
-0.619917
 10
-36.7239
 20
-0.751949
 10
-36.7049
 20
-0.886698
 10
-36.7002
 20
-1.02269
 10
-36.7097
 20
-1.15843
 10
-36.7333
 20
-1.29244
 10
-36.7708
 20
-1.42324
 10
-36.8218
 20
-1.5494
 10
-36.8857
 20
-1.66955
 10
-36.9618
 20
-1.78236
 10
-37.0492
 20
-1.8866
 10
-37.1471
 20
-1.98112
 10
-37.2544
 20
-2.0649
 10
-37.3697
 20
-2.137
 10
-37.4921
 20
-2.19666
 10
-37.6199
 20
-2.2432
 10
-37.7519
 20
-2.27611
 10
-37.8867
 20
-2.29505
 10
-38.0227
 20
-2.2998
  0
LWPOLYLINE
100
AcDbEntity
  8
0
100
AcDbPolyline
 90
60
 70
1
 10
-2.59392
 20
-10.501
 10
-2.72793
 20
-10.4774
 10
-2.85873
 20
-10.4399
 10
-2.9849
 20
-10.3889
 10
-3.10504
 20
-10.325
 10
-3.21785
 20
-10.2489
 10
-3.32209
 20
-10.1615
 10
-3.41662
 20
-10.0636
 10
-3.50039
 20
-9.95636
 10
-3.5725
 20
-9.84097
 10
-3.63215
 20
-9.71866
 10
-3.67869
 20
-9.5908
 10
-3.71161
 20
-9.45876
 10
-3.73055
 20
-9.32402
 10
-3.73529
 20
-9.18802
 10
-3.7258
 20
-9.05228
 10
-3.70217
 20
-8.91828
 10
-3.66467
 20
-8.78748
 10
-3.61369
 20
-8.66131
 10
-3.54981
 20
-8.54116
 10
-3.47372
 20
-8.42835
 10
-3.38625
 20
-8.32412
 10
-3.28837
 20
-8.22959
 10
-3.18114
 20
-8.14582
 10
-3.06575
 20
-8.07371
 10
-2.94344
 20
-8.01406
 10
-2.81558
 20
-7.96752
 10
-2.68354
 20
-7.9346
 10
-2.5488
 20
-7.91566
 10
-2.41281
 20
-7.91091
 10
-2.27706
 20
-7.9204
 10
-2.14306
 20
-7.94403
 10
-2.01225
 20
-7.98154
 10
-1.88609
 20
-8.03251
 10
-1.76594
 20
-8.0964
 10
-1.65313
 20
-8.17249
 10
-1.5489
 20
-8.25995
 10
-1.45437
 20
-8.35784
 10
-1.3706
 20
-8.46507
 10
-1.29849
 20
-8.58046
 10
-1.23884
 20
-8.70276
 10
-1.1923
 20
-8.83063
 10
-1.15938
 20
-8.96266
 10
-1.14044
 20
-9.09741
 10
-1.13569
 20
-9.2334
 10
-1.14518
 20
-9.36914
 10
-1.16881
 20
-9.50315
 10
-1.20632
 20
-9.63395
 10
-1.25729
 20
-9.76012
 10
-1.32118
 20
-9.88026
 10
-1.39727
 20
-9.99307
 10
-1.48473
 20
-10.0973
 10
-1.58262
 20
-10.1918
 10
-1.68984
 20
-10.2756
 10
-1.80524
 20
-10.3477
 10
-1.92754
 20
-10.4074
 10
-2.05541
 20
-10.4539
 10
-2.18744
 20
-10.4868
 10
-2.32219
 20
-10.5058
 10
-2.45818
 20
-10.5105
  0
LWPOLYLINE
100
AcDbEntity
  8
0
100
AcDbPolyline
 90
40
 70
1
 10
60.712
 20
-20.4252
 10
60.3423
 20
-20.2721
 10
60.0011
 20
-20.063
 10
59.6969
 20
-19.8031
 10
59.437
 20
-19.4989
 10
59.2279
 20
-19.1577
 10
59.0748
 20
-18.788
 10
58.9814
 20
-18.3989
 10
58.95
 20
-18
 10
58.9814
 20
-17.6011
 10
59.0748
 20
-17.212
 10
59.2279
 20
-16.8423
 10
59.437
 20
-16.5011
 10
59.6969
 20
-16.1969
 10
60.0011
 20
-15.937
 10
60.3423
 20
-15.7279
 10
60.712
 20
-15.5748
 10
61.1011
 20
-15.4814
 10
61.5
 20
-15.45
 10
61.8989
 20
-15.4814
 10
62.288
 20
-15.5748
 10
62.6577
 20
-15.7279
 10
62.9989
 20
-15.937
 10
63.3031
 20
-16.1969
 10
63.563
 20
-16.5011
 10
63.7721
 20
-16.8423
 10
63.9252
 20
-17.212
 10
64.0186
 20
-17.6011
 10
64.05
 20
-18
 10
64.0186
 20
-18.3989
 10
63.9252
 20
-18.788
 10
63.7721
 20
-19.1577
 10
63.563
 20
-19.4989
 10
63.3031
 20
-19.8031
 10
62.9989
 20
-20.063
 10
62.6577
 20
-20.2721
 10
62.288
 20
-20.4252
 10
61.8989
 20
-20.5186
 10
61.5
 20
-20.55
 10
61.1011
 20
-20.5186
  0
LWPOLYLINE
100
AcDbEntity
  8
0
100
AcDbPolyline
 90
5
 70
1
 10
-56.4007
 20
-38.6562
 10
-52.2953
 20
-20.874
 10
-49.2017
 20
-21.5882
 10
-52.5996
 20
-36.3063
 10
-53.3071
 20
-39.3705
  0
LWPOLYLINE
100
AcDbEntity
  8
0
100
AcDbPolyline
 90
40
 70
1
 10
5.60109
 20
-30.0186
 10
5.21201
 20
-29.9252
 10
4.84232
 20
-29.7721
 10
4.50115
 20
-29.563
 10
4.19688
 20
-29.3031
 10
3.93701
 20
-28.9989
 10
3.72793
 20
-28.6577
 10
3.57481
 20
-28.288
 10
3.48139
 20
-27.8989
 10
3.45
 20
-27.5
 10
3.48139
 20
-27.1011
 10
3.57481
 20
-26.712
 10
3.72793
 20
-26.3423
 10
3.93701
 20
-26.0011
 10
4.19688
 20
-25.6969
 10
4.50115
 20
-25.437
 10
4.84232
 20
-25.2279
 10
5.21201
 20
-25.0748
 10
5.60109
 20
-24.9814
 10
6
 20
-24.95
 10
6.39891
 20
-24.9814
 10
6.78799
 20
-25.0748
 10
7.15768
 20
-25.2279
 10
7.49885
 20
-25.437
 10
7.80312
 20
-25.6969
 10
8.06299
 20
-26.0011
 10
8.27207
 20
-26.3423
 10
8.42519
 20
-26.712
 10
8.51861
 20
-27.1011
 10
8.55
 20
-27.5
 10
8.51861
 20
-27.8989
 10
8.42519
 20
-28.288
 10
8.27207
 20
-28.6577
 10
8.06299
 20
-28.9989
 10
7.80312
 20
-29.3031
 10
7.49885
 20
-29.563
 10
7.15768
 20
-29.7721
 10
6.78799
 20
-29.9252
 10
6.39891
 20
-30.0186
 10
6
 20
-30.05
  0
LWPOLYLINE
100
AcDbEntity
  8
0
100
AcDbPolyline
 90
40
 70
1
 10
45.1011
 20
-30.0186
 10
44.712
 20
-29.9252
 10
44.3423
 20
-29.7721
 10
44.0011
 20
-29.563
 10
43.6969
 20
-29.3031
 10
43.437
 20
-28.9989
 10
43.2279
 20
-28.6577
 10
43.0748
 20
-28.288
 10
42.9814
 20
-27.8989
 10
42.95
 20
-27.5
 10
42.9814
 20
-27.1011
 10
43.0748
 20
-26.712
 10
43.2279
 20
-26.3423
 10
43.437
 20
-26.0011
 10
43.6969
 20
-25.6969
 10
44.0011
 20
-25.437
 10
44.3423
 20
-25.2279
 10
44.712
 20
-25.0748
 10
45.1011
 20
-24.9814
 10
45.5
 20
-24.95
 10
45.8989
 20
-24.9814
 10
46.288
 20
-25.0748
 10
46.6577
 20
-25.2279
 10
46.9989
 20
-25.437
 10
47.3031
 20
-25.6969
 10
47.563
 20
-26.0011
 10
47.7721
 20
-26.3423
 10
47.9252
 20
-26.712
 10
48.0186
 20
-27.1011
 10
48.05
 20
-27.5
 10
48.0186
 20
-27.8989
 10
47.9252
 20
-28.288
 10
47.7721
 20
-28.6577
 10
47.563
 20
-28.9989
 10
47.3031
 20
-29.3031
 10
46.9989
 20
-29.563
 10
46.6577
 20
-29.7721
 10
46.288
 20
-29.9252
 10
45.8989
 20
-30.0186
 10
45.5
 20
-30.05
  0
LWPOLYLINE
100
AcDbEntity
  8
0
100
AcDbPolyline
 90
40
 70
1
 10
-26.704
 20
-37.4446
 10
-27.3906
 20
-37.2798
 10
-28.043
 20
-37.0095
 10
-28.645
 20
-36.6406
 10
-29.182
 20
-36.182
 10
-29.6406
 20
-35.645
 10
-30.0095
 20
-35.043
 10
-30.2798
 20
-34.3906
 10
-30.4446
 20
-33.704
 10
-30.5
 20
-33
 10
-30.4446
 20
-32.296
 10
-30.2798
 20
-31.6094
 10
-30.0095
 20
-30.957
 10
-29.6406
 20
-30.355
 10
-29.182
 20
-29.818
 10
-28.645
 20
-29.3594
 10
-28.043
 20
-28.9905
 10
-27.3906
 20
-28.7202
 10
-26.704
 20
-28.5554
 10
-26
 20
-28.5
 10
-25.296
 20
-28.5554
 10
-24.6094
 20
-28.7202
 10
-23.957
 20
-28.9905
 10
-23.355
 20
-29.3594
 10
-22.818
 20
-29.818
 10
-22.3594
 20
-30.355
 10
-21.9905
 20
-30.957
 10
-21.7202
 20
-31.6094
 10
-21.5554
 20
-32.296
 10
-21.5
 20
-33
 10
-21.5554
 20
-33.704
 10
-21.7202
 20
-34.3906
 10
-21.9905
 20
-35.043
 10
-22.3594
 20
-35.645
 10
-22.818
 20
-36.182
 10
-23.355
 20
-36.6406
 10
-23.957
 20
-37.0095
 10
-24.6094
 20
-37.2798
 10
-25.296
 20
-37.4446
 10
-26
 20
-37.5
  0
LWPOLYLINE
100
AcDbEntity
  8
0
100
AcDbPolyline
 90
43
 70
1
 10
9
 20
-52.5
 10
7.67031
 20
-52.3954
 10
6.37336
 20
-52.084
 10
5.14108
 20
-51.5736
 10
4.00383
 20
-50.8766
 10
2.98959
 20
-50.0104
 10
2.12336
 20
-48.9962
 10
2.0833
 20
-48.9308
 10
1.42645
 20
-47.8589
 10
0.91602
 20
-46.6266
 10
0.60465
 20
-45.3297
 10
0.5
 20
-44
 10
0.60465
 20
-42.6703
 10
0.91602
 20
-41.3734
 10
1.42645
 20
-40.1411
 10
2.12336
 20
-39.0038
 10
2.98959
 20
-37.9896
 10
4.00383
 20
-37.1234
 10
5.14108
 20
-36.4264
 10
6.37336
 20
-35.916
 10
7.67031
 20
-35.6046
 10
9
 20
-35.5
 10
27
 20
-35.5
 10
28.3297
 20
-35.6046
 10
29.6266
 20
-35.916
 10
30.8589
 20
-36.4264
 10
31.9962
 20
-37.1234
 10
33.0104
 20
-37.9896
 10
33.8766
 20
-39.0038
 10
34.5736
 20
-40.1411
 10
35.084
 20
-41.3734
 10
35.3954
 20
-42.6703
 10
35.5
 20
-44
 10
35.3954
 20
-45.3297
 10
35.084
 20
-46.6266
 10
34.5736
 20
-47.8589
 10
33.8766
 20
-48.9962
 10
33.0104
 20
-50.0104
 10
31.9962
 20
-50.8766
 10
30.8589
 20
-51.5736
 10
29.6266
 20
-52.084
 10
28.3297
 20
-52.3954
 10
27
 20
-52.5
  0
LWPOLYLINE
100
AcDbEntity
  8
0
100
AcDbPolyline
 90
4
 70
1
 10
-34.5367
 20
-43.7349
 10
-33.8225
 20
-40.6413
 10
-9.46326
 20
-46.2651
 10
-10.1775
 20
-49.3587
  0
LWPOLYLINE
100
AcDbEntity
  8
0
100
AcDbPolyline
 90
40
 70
1
 10
54.296
 20
-60.4446
 10
53.6094
 20
-60.2798
 10
52.957
 20
-60.0095
 10
52.355
 20
-59.6406
 10
51.818
 20
-59.182
 10
51.3594
 20
-58.645
 10
50.9905
 20
-58.043
 10
50.7202
 20
-57.3906
 10
50.5554
 20
-56.704
 10
50.5
 20
-56
 10
50.5554
 20
-55.296
 10
50.7202
 20
-54.6094
 10
50.9905
 20
-53.957
 10
51.3594
 20
-53.355
 10
51.818
 20
-52.818
 10
52.355
 20
-52.3594
 10
52.957
 20
-51.9905
 10
53.6094
 20
-51.7202
 10
54.296
 20
-51.5554
 10
55
 20
-51.5
 10
55.704
 20
-51.5554
 10
56.3906
 20
-51.7202
 10
57.043
 20
-51.9905
 10
57.645
 20
-52.3594
 10
58.182
 20
-52.818
 10
58.6406
 20
-53.355
 10
59.0095
 20
-53.957
 10
59.2798
 20
-54.6094
 10
59.4446
 20
-55.296
 10
59.5
 20
-56
 10
59.4446
 20
-56.704
 10
59.2798
 20
-57.3906
 10
59.0095
 20
-58.043
 10
58.6406
 20
-58.645
 10
58.182
 20
-59.182
 10
57.645
 20
-59.6406
 10
57.043
 20
-60.0095
 10
56.3906
 20
-60.2798
 10
55.704
 20
-60.4446
 10
55
 20
-60.5
  0
LWPOLYLINE
100
AcDbEntity
  8
0
100
AcDbPolyline
 90
3
 70
1
 10
61.5
 20
-20.55
 10
61.5
 20
-20.55
 10
61.5
 20
-20.55
  0
ENDSEC
  0
EOF
