999
DXF from OpenSCAD
  0
SECTION
  2
HEADER
  9
$ACADVER
  1
AC1006
  9
$INSBASE
 10
0.0
 20
0.0
 30
0.0
  9
$EXTMIN
 10
-107.996
 20
-112.868
  9
$EXTMAX
 10
182.817
 20
112.868
  9
$LINMIN
 10
-107.996
 20
-112.868
  9
$LINMAX
 10
182.817
 20
112.868
  0
ENDSEC
  0
SECTION
  2
TABLES
  0
TABLE
  2
LTYPE
 70
1
  0
LTYPE
  2
CONTINUOUS
 70
64
  3
Solid line
 72
65
 73
0
 40
0.000000
  0
ENDTAB
  0
TABLE
  2
LAYER
 70
6
  0
LAYER
  2
0
 70
64
 62
7
  6
CONTINUOUS
  0
ENDTAB
  0
TABLE
  2
STYLE
 70
0
  0
ENDTAB
  0
ENDSEC
  0
SECTION
  2
BLOCKS
  0
ENDSEC
  0
SECTION
  2
ENTITIES
  0
LWPOLYLINE
100
AcDbEntity
  8
0
100
AcDbPolyline
 90
16
 70
1
 10
-4.74559
 20
65.6808
 10
11.7544
 20
65.6808
 10
11.7544
 20
109.706
 10
-4.74559
 20
109.706
 10
-4.74559
 20
112.868
 10
-35.7456
 20
112.868
 10
-35.7456
 20
109.706
 10
-54.1581
 20
109.706
 10
-54.1581
 20
96.2933
 10
-57.2456
 20
96.2933
 10
-57.2456
 20
79.0933
 10
-54.1581
 20
79.0933
 10
-54.1581
 20
65.6808
 10
-35.7456
 20
65.6808
 10
-35.7456
 20
62.5183
 10
-4.74559
 20
62.5183
  0
LWPOLYLINE
100
AcDbEntity
  8
0
100
AcDbPolyline
 90
117
 70
1
 10
40
 20
-55
 10
41.0453
 20
-54.9452
 10
42.0791
 20
-54.7815
 10
43.0902
 20
-54.5106
 10
44.0674
 20
-54.1355
 10
45
 20
-53.6603
 10
45.8779
 20
-53.0902
 10
46.6913
 20
-52.4314
 10
47.4314
 20
-51.6913
 10
48.0902
 20
-50.8779
 10
48.6603
 20
-50
 10
49.1355
 20
-49.0674
 10
49.5106
 20
-48.0902
 10
49.7815
 20
-47.0791
 10
49.9452
 20
-46.0453
 10
50
 20
-45
 10
50
 20
-6.34323
 10
49.4658
 20
-6.38058
 10
46.3275
 20
-6.271
 10
43.2179
 20
-5.83397
 10
40.171
 20
-5.0743
 10
37.2203
 20
-4.0003
 10
34.3979
 20
-2.62374
 10
31.7349
 20
-0.959714
 10
29.2604
 20
0.973559
 10
27.0016
 20
3.1549
 10
24.9831
 20
5.5604
 10
23.2272
 20
8.1637
 10
21.753
 20
10.9363
 10
20.5766
 20
13.8478
 10
19.7111
 20
16.8663
 10
19.6989
 20
16.9357
 10
19.5417
 20
16.8722
 10
18.7367
 20
16.6414
 10
17.9121
 20
16.496
 10
17.0767
 20
16.4375
 10
16.2399
 20
16.4668
 10
15.4106
 20
16.5833
 10
14.5981
 20
16.7859
 10
13.8113
 20
17.0723
 10
13.0586
 20
17.4394
 10
12.3485
 20
17.8831
 10
11.6886
 20
18.3986
 10
11.0863
 20
18.9803
 10
10.548
 20
19.6218
 10
10.0798
 20
20.316
 10
9.68666
 20
21.0554
 10
9.37297
 20
21.8318
 10
9.14216
 20
22.6367
 10
8.99675
 20
23.4614
 10
8.93834
 20
24.2967
 10
8.96756
 20
25.1336
 10
9.0841
 20
25.9628
 10
9.28668
 20
26.7753
 10
9.57308
 20
27.5622
 10
9.94016
 20
28.3148
 10
10.3839
 20
29.0249
 10
10.8994
 20
29.6848
 10
11.4811
 20
30.2872
 10
12.1226
 20
30.8254
 10
12.8168
 20
31.2937
 10
13.5562
 20
31.6868
 10
14.3326
 20
32.0005
 10
15.1375
 20
32.2313
 10
15.9622
 20
32.3767
 10
16.7975
 20
32.4351
 10
17.6344
 20
32.4059
 10
18.4636
 20
32.2893
 10
19.2761
 20
32.0868
 10
20.063
 20
31.8004
 10
20.1023
 20
31.7812
 10
20.2531
 20
32.386
 10
21.3271
 20
35.3368
 10
22.7036
 20
38.1591
 10
24.3676
 20
40.8221
 10
26.3009
 20
43.2966
 10
28.4822
 20
45.5555
 10
28.9128
 20
45.9167
 10
28.5991
 20
46.5067
 10
28.0109
 20
47.9624
 10
27.5781
 20
49.4717
 10
27.3055
 20
51.0179
 10
27.196
 20
52.5842
 10
27.2508
 20
54.1533
 10
27.3697
 20
55
 10
-40
 20
55
 10
-41.0453
 20
54.9452
 10
-42.0791
 20
54.7815
 10
-43.0902
 20
54.5106
 10
-44.0674
 20
54.1355
 10
-45
 20
53.6603
 10
-45.8779
 20
53.0902
 10
-46.6913
 20
52.4314
 10
-47.4314
 20
51.6913
 10
-48.0902
 20
50.8779
 10
-48.6603
 20
50
 10
-49.1355
 20
49.0674
 10
-49.5106
 20
48.0902
 10
-49.7815
 20
47.0791
 10
-49.9452
 20
46.0453
 10
-50
 20
45
 10
-50
 20
-45
 10
-49.9452
 20
-46.0453
 10
-49.7815
 20
-47.0791
 10
-49.5106
 20
-48.0902
 10
-49.1355
 20
-49.0674
 10
-48.6603
 20
-50
 10
-48.0902
 20
-50.8779
 10
-47.4314
 20
-51.6913
 10
-46.6913
 20
-52.4314
 10
-45.8779
 20
-53.0902
 10
-45
 20
-53.6603
 10
-44.0674
 20
-54.1355
 10
-43.0902
 20
-54.5106
 10
-42.0791
 20
-54.7815
 10
-41.0453
 20
-54.9452
 10
-40
 20
-55
  0
LWPOLYLINE
100
AcDbEntity
  8
0
100
AcDbPolyline
 90
4
 70
1
 10
-24.5739
 20
46.6065
 10
-24.5739
 20
49.7815
 10
6.42614
 20
49.7815
 10
6.42614
 20
46.6065
  0
LWPOLYLINE
100
AcDbEntity
  8
0
100
AcDbPolyline
 90
4
 70
1
 10
-46.2594
 20
49.6471
 10
-43.0844
 20
49.6471
 10
-43.0844
 20
27.8971
 10
-46.2594
 20
27.8971
  0
LWPOLYLINE
100
AcDbEntity
  8
0
100
AcDbPolyline
 90
48
 70
1
 10
-33.0027
 20
10.2968
 10
-33.0027
 20
34.2968
 10
-14.3015
 20
34.2968
 10
-14.4713
 20
34.5486
 10
-14.6433
 20
34.872
 10
-14.7806
 20
35.2117
 10
-14.8815
 20
35.5639
 10
-14.9452
 20
35.9247
 10
-14.9707
 20
36.2901
 10
-14.9579
 20
36.6563
 10
-14.9069
 20
37.019
 10
-14.8183
 20
37.3745
 10
-14.693
 20
37.7188
 10
-14.5324
 20
38.048
 10
-14.3383
 20
38.3587
 10
-14.1127
 20
38.6474
 10
-13.8582
 20
38.9109
 10
-13.5776
 20
39.1464
 10
-13.2739
 20
39.3513
 10
-12.9504
 20
39.5233
 10
-12.6107
 20
39.6605
 10
-12.2586
 20
39.7615
 10
-11.8978
 20
39.8251
 10
-11.5323
 20
39.8507
 10
-11.1662
 20
39.8379
 10
-10.8034
 20
39.7869
 10
-10.4479
 20
39.6983
 10
-10.1037
 20
39.573
 10
-9.77442
 20
39.4124
 10
-9.46373
 20
39.2182
 10
-9.17504
 20
38.9927
 10
-8.91151
 20
38.7382
 10
-8.67603
 20
38.4576
 10
-8.47117
 20
38.1538
 10
-8.29917
 20
37.8304
 10
-8.16194
 20
37.4907
 10
-8.06096
 20
37.1385
 10
-7.99734
 20
36.7777
 10
-7.97178
 20
36.4123
 10
-7.98457
 20
36.0462
 10
-8.03556
 20
35.6834
 10
-8.12418
 20
35.3279
 10
-8.24948
 20
34.9836
 10
-8.41008
 20
34.6544
 10
-8.60422
 20
34.3437
 10
-8.64087
 20
34.2968
 10
-5.00272
 20
34.2968
 10
-5.00272
 20
10.2968
  0
LWPOLYLINE
100
AcDbEntity
  8
0
100
AcDbPolyline
 90
5
 70
1
 10
-46.2594
 20
7.89711
 10
-43.0844
 20
7.89711
 10
-43.0844
 20
-0.376696
 10
-43.0844
 20
-12.1029
 10
-46.2594
 20
-12.1029
  0
LWPOLYLINE
100
AcDbEntity
  8
0
100
AcDbPolyline
 90
60
 70
1
 10
9.64085
 20
-9.01192
 10
9.42836
 20
-8.98206
 10
9.22016
 20
-8.93015
 10
9.01852
 20
-8.85676
 10
8.82566
 20
-8.76269
 10
8.64369
 20
-8.64898
 10
8.4746
 20
-8.51688
 10
8.32024
 20
-8.36782
 10
8.18232
 20
-8.20344
 10
8.06233
 20
-8.02555
 10
7.96159
 20
-7.83609
 10
7.88121
 20
-7.63714
 10
7.82206
 20
-7.43087
 10
7.7848
 20
-7.21955
 10
7.76983
 20
-7.0055
 10
7.77732
 20
-6.79105
 10
7.80718
 20
-6.57856
 10
7.85909
 20
-6.37036
 10
7.93248
 20
-6.16872
 10
8.02655
 20
-5.97586
 10
8.14026
 20
-5.79389
 10
8.27237
 20
-5.6248
 10
8.42142
 20
-5.47045
 10
8.5858
 20
-5.33252
 10
8.76369
 20
-5.21253
 10
8.95315
 20
-5.11179
 10
9.1521
 20
-5.03141
 10
9.35837
 20
-4.97226
 10
9.56969
 20
-4.935
 10
9.78374
 20
-4.92003
 10
9.99819
 20
-4.92752
 10
10.2107
 20
-4.95739
 10
10.4189
 20
-5.0093
 10
10.6205
 20
-5.08269
 10
10.8134
 20
-5.17675
 10
10.9954
 20
-5.29046
 10
11.1644
 20
-5.42257
 10
11.3188
 20
-5.57163
 10
11.4567
 20
-5.736
 10
11.5767
 20
-5.91389
 10
11.6775
 20
-6.10335
 10
11.7578
 20
-6.30231
 10
11.817
 20
-6.50857
 10
11.8542
 20
-6.71989
 10
11.8692
 20
-6.93394
 10
11.8617
 20
-7.14839
 10
11.8319
 20
-7.36088
 10
11.7799
 20
-7.56908
 10
11.7066
 20
-7.77072
 10
11.6125
 20
-7.96358
 10
11.4988
 20
-8.14555
 10
11.3667
 20
-8.31464
 10
11.2176
 20
-8.469
 10
11.0532
 20
-8.60692
 10
10.8753
 20
-8.72691
 10
10.6859
 20
-8.82765
 10
10.4869
 20
-8.90804
 10
10.2807
 20
-8.96718
 10
10.0694
 20
-9.00444
 10
9.8553
 20
-9.01941
  0
LWPOLYLINE
100
AcDbEntity
  8
0
100
AcDbPolyline
 90
60
 70
1
 10
-33.0643
 20
-28.7892
 10
-33.4261
 20
-28.7319
 10
-33.78
 20
-28.6371
 10
-34.122
 20
-28.5058
 10
-34.4484
 20
-28.3394
 10
-34.7557
 20
-28.1399
 10
-35.0404
 20
-27.9094
 10
-35.2994
 20
-27.6503
 10
-35.53
 20
-27.3656
 10
-35.7295
 20
-27.0584
 10
-35.8958
 20
-26.7319
 10
-36.0271
 20
-26.3899
 10
-36.1219
 20
-26.036
 10
-36.1792
 20
-25.6742
 10
-36.1984
 20
-25.3084
 10
-36.1792
 20
-24.9425
 10
-36.1219
 20
-24.5807
 10
-36.0271
 20
-24.2268
 10
-35.8958
 20
-23.8848
 10
-35.7295
 20
-23.5584
 10
-35.53
 20
-23.2511
 10
-35.2994
 20
-22.9664
 10
-35.0404
 20
-22.7074
 10
-34.7557
 20
-22.4768
 10
-34.4484
 20
-22.2773
 10
-34.122
 20
-22.1109
 10
-33.78
 20
-21.9797
 10
-33.4261
 20
-21.8848
 10
-33.0643
 20
-21.8275
 10
-32.6984
 20
-21.8084
 10
-32.3326
 20
-21.8275
 10
-31.9707
 20
-21.8848
 10
-31.6168
 20
-21.9797
 10
-31.2748
 20
-22.1109
 10
-30.9484
 20
-22.2773
 10
-30.6412
 20
-22.4768
 10
-30.3564
 20
-22.7074
 10
-30.0974
 20
-22.9664
 10
-29.8668
 20
-23.2511
 10
-29.6673
 20
-23.5584
 10
-29.501
 20
-23.8848
 10
-29.3697
 20
-24.2268
 10
-29.2749
 20
-24.5807
 10
-29.2176
 20
-24.9425
 10
-29.1984
 20
-25.3084
 10
-29.2176
 20
-25.6742
 10
-29.2749
 20
-26.036
 10
-29.3697
 20
-26.3899
 10
-29.501
 20
-26.7319
 10
-29.6673
 20
-27.0584
 10
-29.8668
 20
-27.3656
 10
-30.0974
 20
-27.6503
 10
-30.3565
 20
-27.9094
 10
-30.6412
 20
-28.1399
 10
-30.9484
 20
-28.3394
 10
-31.2748
 20
-28.5058
 10
-31.6168
 20
-28.6371
 10
-31.9707
 20
-28.7319
 10
-32.3326
 20
-28.7892
 10
-32.6984
 20
-28.8084
  0
LWPOLYLINE
100
AcDbEntity
  8
0
100
AcDbPolyline
 90
60
 70
1
 10
-19.0643
 20
-28.7892
 10
-19.4261
 20
-28.7319
 10
-19.78
 20
-28.6371
 10
-20.122
 20
-28.5058
 10
-20.4484
 20
-28.3394
 10
-20.7557
 20
-28.1399
 10
-21.0404
 20
-27.9094
 10
-21.2994
 20
-27.6503
 10
-21.53
 20
-27.3656
 10
-21.7295
 20
-27.0584
 10
-21.8958
 20
-26.7319
 10
-22.0271
 20
-26.3899
 10
-22.1219
 20
-26.036
 10
-22.1792
 20
-25.6742
 10
-22.1984
 20
-25.3084
 10
-22.1792
 20
-24.9425
 10
-22.1219
 20
-24.5807
 10
-22.0271
 20
-24.2268
 10
-21.8958
 20
-23.8848
 10
-21.7295
 20
-23.5584
 10
-21.53
 20
-23.2511
 10
-21.2994
 20
-22.9664
 10
-21.0404
 20
-22.7074
 10
-20.7557
 20
-22.4768
 10
-20.4484
 20
-22.2773
 10
-20.122
 20
-22.1109
 10
-19.78
 20
-21.9797
 10
-19.4261
 20
-21.8848
 10
-19.0643
 20
-21.8275
 10
-18.6984
 20
-21.8084
 10
-18.3326
 20
-21.8275
 10
-17.9707
 20
-21.8848
 10
-17.6168
 20
-21.9797
 10
-17.2748
 20
-22.1109
 10
-16.9484
 20
-22.2773
 10
-16.6412
 20
-22.4768
 10
-16.3565
 20
-22.7074
 10
-16.0974
 20
-22.9664
 10
-15.8668
 20
-23.2511
 10
-15.6673
 20
-23.5584
 10
-15.501
 20
-23.8848
 10
-15.3697
 20
-24.2268
 10
-15.2749
 20
-24.5807
 10
-15.2176
 20
-24.9425
 10
-15.1984
 20
-25.3084
 10
-15.2176
 20
-25.6742
 10
-15.2749
 20
-26.036
 10
-15.3697
 20
-26.3899
 10
-15.501
 20
-26.7319
 10
-15.6673
 20
-27.0584
 10
-15.8669
 20
-27.3656
 10
-16.0974
 20
-27.6503
 10
-16.3565
 20
-27.9094
 10
-16.6412
 20
-28.1399
 10
-16.9484
 20
-28.3394
 10
-17.2748
 20
-28.5058
 10
-17.6169
 20
-28.6371
 10
-17.9707
 20
-28.7319
 10
-18.3326
 20
-28.7892
 10
-18.6984
 20
-28.8084
  0
LWPOLYLINE
100
AcDbEntity
  8
0
100
AcDbPolyline
 90
60
 70
1
 10
-6.06426
 20
-28.7892
 10
-6.4261
 20
-28.7319
 10
-6.77997
 20
-28.6371
 10
-7.12199
 20
-28.5058
 10
-7.44841
 20
-28.3394
 10
-7.75566
 20
-28.1399
 10
-8.04037
 20
-27.9094
 10
-8.29942
 20
-27.6503
 10
-8.52997
 20
-27.3656
 10
-8.7295
 20
-27.0584
 10
-8.89582
 20
-26.7319
 10
-9.02711
 20
-26.3899
 10
-9.12193
 20
-26.0361
 10
-9.17924
 20
-25.6742
 10
-9.19841
 20
-25.3084
 10
-9.17924
 20
-24.9425
 10
-9.12193
 20
-24.5807
 10
-9.02711
 20
-24.2268
 10
-8.89582
 20
-23.8848
 10
-8.7295
 20
-23.5584
 10
-8.52997
 20
-23.2511
 10
-8.29942
 20
-22.9664
 10
-8.04037
 20
-22.7074
 10
-7.75566
 20
-22.4768
 10
-7.44841
 20
-22.2773
 10
-7.12199
 20
-22.1109
 10
-6.77997
 20
-21.9797
 10
-6.4261
 20
-21.8848
 10
-6.06426
 20
-21.8275
 10
-5.69841
 20
-21.8084
 10
-5.33256
 20
-21.8275
 10
-4.97072
 20
-21.8848
 10
-4.61685
 20
-21.9797
 10
-4.27483
 20
-22.1109
 10
-3.94841
 20
-22.2773
 10
-3.64116
 20
-22.4768
 10
-3.35645
 20
-22.7074
 10
-3.0974
 20
-22.9664
 10
-2.86685
 20
-23.2511
 10
-2.66732
 20
-23.5584
 10
-2.501
 20
-23.8848
 10
-2.36971
 20
-24.2268
 10
-2.27489
 20
-24.5807
 10
-2.21758
 20
-24.9425
 10
-2.19841
 20
-25.3084
 10
-2.21758
 20
-25.6742
 10
-2.27489
 20
-26.036
 10
-2.36971
 20
-26.3899
 10
-2.501
 20
-26.7319
 10
-2.66732
 20
-27.0584
 10
-2.86685
 20
-27.3656
 10
-3.0974
 20
-27.6503
 10
-3.35645
 20
-27.9094
 10
-3.64116
 20
-28.1399
 10
-3.94841
 20
-28.3394
 10
-4.27483
 20
-28.5058
 10
-4.61685
 20
-28.6371
 10
-4.97072
 20
-28.7319
 10
-5.33256
 20
-28.7892
 10
-5.69841
 20
-28.8084
  0
LWPOLYLINE
100
AcDbEntity
  8
0
100
AcDbPolyline
 90
5
 70
1
 10
-46.2594
 20
-32.1029
 10
-43.0844
 20
-32.1029
 10
-43.0844
 20
-47.2081
 10
-43.0844
 20
-50.3529
 10
-46.2594
 20
-50.3529
  0
LWPOLYLINE
100
AcDbEntity
  8
0
100
AcDbPolyline
 90
60
 70
1
 10
-18.2153
 20
-41.4896
 10
-18.5781
 20
-41.4386
 10
-18.9335
 20
-41.35
 10
-19.2778
 20
-41.2247
 10
-19.6071
 20
-41.0641
 10
-19.9178
 20
-40.87
 10
-20.2064
 20
-40.6444
 10
-20.47
 20
-40.3899
 10
-20.7055
 20
-40.1093
 10
-20.9103
 20
-39.8056
 10
-21.0823
 20
-39.4821
 10
-21.2196
 20
-39.1424
 10
-21.3205
 20
-38.7903
 10
-21.3841
 20
-38.4295
 10
-21.4097
 20
-38.064
 10
-21.3969
 20
-37.6979
 10
-21.3459
 20
-37.3351
 10
-21.2573
 20
-36.9796
 10
-21.132
 20
-36.6354
 10
-20.9714
 20
-36.3061
 10
-20.7773
 20
-35.9954
 10
-20.5517
 20
-35.7067
 10
-20.2972
 20
-35.4432
 10
-20.0166
 20
-35.2077
 10
-19.7129
 20
-35.0029
 10
-19.3894
 20
-34.8309
 10
-19.0497
 20
-34.6936
 10
-18.6976
 20
-34.5926
 10
-18.3368
 20
-34.529
 10
-17.9713
 20
-34.5035
 10
-17.6052
 20
-34.5163
 10
-17.2424
 20
-34.5672
 10
-16.8869
 20
-34.6559
 10
-16.5427
 20
-34.7812
 10
-16.2134
 20
-34.9418
 10
-15.9027
 20
-35.1359
 10
-15.614
 20
-35.3615
 10
-15.3505
 20
-35.6159
 10
-15.115
 20
-35.8966
 10
-14.9102
 20
-36.2003
 10
-14.7382
 20
-36.5238
 10
-14.6009
 20
-36.8634
 10
-14.4999
 20
-37.2156
 10
-14.4363
 20
-37.5764
 10
-14.4108
 20
-37.9419
 10
-14.4236
 20
-38.308
 10
-14.4745
 20
-38.6708
 10
-14.5632
 20
-39.0262
 10
-14.6885
 20
-39.3705
 10
-14.8491
 20
-39.6998
 10
-15.0432
 20
-40.0105
 10
-15.2688
 20
-40.2991
 10
-15.5232
 20
-40.5627
 10
-15.8039
 20
-40.7982
 10
-16.1076
 20
-41.003
 10
-16.4311
 20
-41.175
 10
-16.7707
 20
-41.3123
 10
-17.1229
 20
-41.4132
 10
-17.4837
 20
-41.4769
 10
-17.8492
 20
-41.5024
  0
LWPOLYLINE
100
AcDbEntity
  8
0
100
AcDbPolyline
 90
4
 70
1
 10
-28.8133
 20
-47.2081
 10
6.18666
 20
-47.2081
 10
6.18666
 20
-50.3831
 10
-28.8133
 20
-50.3831
  0
LWPOLYLINE
100
AcDbEntity
  8
0
100
AcDbPolyline
 90
35
 70
1
 10
174.382
 20
-57.0493
 10
175.907
 20
-56.683
 10
177.357
 20
-56.0825
 10
178.695
 20
-55.2626
 10
179.888
 20
-54.2435
 10
180.907
 20
-53.0503
 10
181.727
 20
-51.7123
 10
182.328
 20
-50.2626
 10
182.694
 20
-48.7368
 10
182.817
 20
-47.1724
 10
182.817
 20
-43.9127
 10
162.254
 20
52.8276
 10
62.8172
 20
52.8276
 10
61.2529
 20
52.7044
 10
59.727
 20
52.3381
 10
58.2773
 20
51.7376
 10
56.9393
 20
50.9177
 10
55.7461
 20
49.8986
 10
54.727
 20
48.7054
 10
53.9071
 20
47.3675
 10
53.3066
 20
45.9177
 10
52.9403
 20
44.3919
 10
52.8172
 20
42.8276
 10
52.8172
 20
-47.1724
 10
52.9403
 20
-48.7368
 10
53.3066
 20
-50.2626
 10
53.9071
 20
-51.7123
 10
54.727
 20
-53.0503
 10
55.7461
 20
-54.2435
 10
56.9393
 20
-55.2626
 10
58.2773
 20
-56.0825
 10
59.727
 20
-56.683
 10
61.2529
 20
-57.0493
 10
62.8172
 20
-57.1724
 10
172.817
 20
-57.1724
  0
LWPOLYLINE
100
AcDbEntity
  8
0
100
AcDbPolyline
 90
4
 70
1
 10
80.4261
 20
46.6065
 10
80.4261
 20
49.7815
 10
111.426
 20
49.7815
 10
111.426
 20
46.6065
  0
LWPOLYLINE
100
AcDbEntity
  8
0
100
AcDbPolyline
 90
4
 70
1
 10
58.7406
 20
49.6471
 10
61.9156
 20
49.6471
 10
61.9156
 20
27.8971
 10
58.7406
 20
27.8971
  0
LWPOLYLINE
100
AcDbEntity
  8
0
100
AcDbPolyline
 90
40
 70
1
 10
134.005
 20
44.2332
 10
133.61
 20
44.2993
 10
133.231
 20
44.4262
 10
132.876
 20
44.611
 10
132.554
 20
44.849
 10
132.274
 20
45.1344
 10
132.042
 20
45.4602
 10
131.863
 20
45.8183
 10
131.743
 20
46.1999
 10
131.684
 20
46.5956
 10
131.687
 20
46.9958
 10
131.753
 20
47.3904
 10
131.88
 20
47.7699
 10
132.065
 20
48.1248
 10
132.303
 20
48.4465
 10
132.588
 20
48.7269
 10
132.914
 20
48.9593
 10
133.272
 20
49.1378
 10
133.654
 20
49.2582
 10
134.049
 20
49.3173
 10
134.45
 20
49.3138
 10
134.844
 20
49.2478
 10
135.224
 20
49.1208
 10
135.579
 20
48.936
 10
135.9
 20
48.698
 10
136.181
 20
48.4126
 10
136.413
 20
48.0869
 10
136.592
 20
47.7288
 10
136.712
 20
47.3471
 10
136.771
 20
46.9514
 10
136.768
 20
46.5513
 10
136.702
 20
46.1566
 10
136.575
 20
45.7772
 10
136.39
 20
45.4222
 10
136.152
 20
45.1006
 10
135.866
 20
44.8201
 10
135.541
 20
44.5877
 10
135.183
 20
44.4092
 10
134.801
 20
44.2889
 10
134.405
 20
44.2297
  0
LWPOLYLINE
100
AcDbEntity
  8
0
100
AcDbPolyline
 90
40
 70
1
 10
153.173
 20
38.5448
 10
152.477
 20
38.6614
 10
151.807
 20
38.8854
 10
151.181
 20
39.2115
 10
150.613
 20
39.6315
 10
150.118
 20
40.1351
 10
149.708
 20
40.71
 10
149.393
 20
41.342
 10
149.181
 20
42.0154
 10
149.077
 20
42.7138
 10
149.083
 20
43.4199
 10
149.199
 20
44.1163
 10
149.423
 20
44.786
 10
149.749
 20
45.4123
 10
150.169
 20
45.9799
 10
150.673
 20
46.4749
 10
151.248
 20
46.8849
 10
151.88
 20
47.2
 10
152.553
 20
47.4123
 10
153.252
 20
47.5167
 10
153.958
 20
47.5106
 10
154.654
 20
47.394
 10
155.324
 20
47.17
 10
155.95
 20
46.8439
 10
156.518
 20
46.4239
 10
157.013
 20
45.9202
 10
157.423
 20
45.3454
 10
157.738
 20
44.7134
 10
157.95
 20
44.04
 10
158.055
 20
43.3416
 10
158.048
 20
42.6355
 10
157.932
 20
41.939
 10
157.708
 20
41.2694
 10
157.382
 20
40.643
 10
156.962
 20
40.0754
 10
156.458
 20
39.5805
 10
155.883
 20
39.1704
 10
155.251
 20
38.8554
 10
154.578
 20
38.643
 10
153.88
 20
38.5386
  0
LWPOLYLINE
100
AcDbEntity
  8
0
100
AcDbPolyline
 90
40
 70
1
 10
93.1365
 20
31.8683
 10
92.4401
 20
31.9849
 10
91.7705
 20
32.2089
 10
91.1441
 20
32.535
 10
90.5765
 20
32.955
 10
90.0815
 20
33.4587
 10
89.6715
 20
34.0335
 10
89.3564
 20
34.6655
 10
89.1441
 20
35.3389
 10
89.0397
 20
36.0373
 10
89.0459
 20
36.7434
 10
89.1624
 20
37.4399
 10
89.3865
 20
38.1095
 10
89.7125
 20
38.7358
 10
90.1326
 20
39.3035
 10
90.6362
 20
39.7984
 10
91.2111
 20
40.2085
 10
91.843
 20
40.5235
 10
92.5165
 20
40.7359
 10
93.2148
 20
40.8402
 10
93.921
 20
40.8341
 10
94.6174
 20
40.7175
 10
95.287
 20
40.4935
 10
95.9134
 20
40.1674
 10
96.481
 20
39.7474
 10
96.9759
 20
39.2438
 10
97.386
 20
38.6689
 10
97.7011
 20
38.0369
 10
97.9134
 20
37.3635
 10
98.0178
 20
36.6651
 10
98.0116
 20
35.959
 10
97.8951
 20
35.2626
 10
97.671
 20
34.5929
 10
97.345
 20
33.9666
 10
96.9249
 20
33.3989
 10
96.4213
 20
32.904
 10
95.8464
 20
32.494
 10
95.2145
 20
32.1789
 10
94.541
 20
31.9665
 10
93.8427
 20
31.8622
  0
LWPOLYLINE
100
AcDbEntity
  8
0
100
AcDbPolyline
 90
40
 70
1
 10
154.449
 20
13.0439
 10
152.755
 20
13.3275
 10
151.125
 20
13.8727
 10
149.601
 20
14.6661
 10
148.22
 20
15.6882
 10
147.016
 20
16.9137
 10
146.018
 20
18.3126
 10
145.251
 20
19.8503
 10
144.734
 20
21.4891
 10
144.48
 20
23.1884
 10
144.495
 20
24.9066
 10
144.779
 20
26.6013
 10
145.324
 20
28.2308
 10
146.118
 20
29.7549
 10
147.14
 20
31.1361
 10
148.365
 20
32.3405
 10
149.764
 20
33.3383
 10
151.302
 20
34.1049
 10
152.941
 20
34.6216
 10
154.64
 20
34.8756
 10
156.358
 20
34.8606
 10
158.053
 20
34.577
 10
159.682
 20
34.0318
 10
161.206
 20
33.2384
 10
162.588
 20
32.2163
 10
163.792
 20
30.9908
 10
164.79
 20
29.5919
 10
165.556
 20
28.0542
 10
166.073
 20
26.4155
 10
166.327
 20
24.7161
 10
166.312
 20
22.9979
 10
166.028
 20
21.3032
 10
165.483
 20
19.6738
 10
164.69
 20
18.1497
 10
163.668
 20
16.7684
 10
162.442
 20
15.5641
 10
161.043
 20
14.5663
 10
159.506
 20
13.7996
 10
157.867
 20
13.2829
 10
156.168
 20
13.0289
  0
LWPOLYLINE
100
AcDbEntity
  8
0
100
AcDbPolyline
 90
4
 70
1
 10
99.2971
 20
6.38837
 10
99.2971
 20
31.3884
 10
114.297
 20
31.3884
 10
114.297
 20
6.38837
  0
LWPOLYLINE
100
AcDbEntity
  8
0
100
AcDbPolyline
 90
60
 70
1
 10
68.063
 20
25.6846
 10
67.9286
 20
25.7059
 10
67.7972
 20
25.7411
 10
67.6701
 20
25.7899
 10
67.5489
 20
25.8517
 10
67.4348
 20
25.9258
 10
67.329
 20
26.0114
 10
67.2328
 20
26.1076
 10
67.1472
 20
26.2134
 10
67.0731
 20
26.3275
 10
67.0113
 20
26.4487
 10
66.9625
 20
26.5758
 10
66.9273
 20
26.7072
 10
66.906
 20
26.8416
 10
66.8989
 20
26.9775
 10
66.906
 20
27.1134
 10
66.9273
 20
27.2478
 10
66.9625
 20
27.3792
 10
67.0113
 20
27.5062
 10
67.0731
 20
27.6275
 10
67.1472
 20
27.7416
 10
67.2328
 20
27.8474
 10
67.329
 20
27.9436
 10
67.4348
 20
28.0292
 10
67.5489
 20
28.1033
 10
67.6701
 20
28.1651
 10
67.7972
 20
28.2139
 10
67.9286
 20
28.2491
 10
68.063
 20
28.2704
 10
68.1989
 20
28.2775
 10
68.3348
 20
28.2704
 10
68.4692
 20
28.2491
 10
68.6006
 20
28.2139
 10
68.7276
 20
28.1651
 10
68.8489
 20
28.1033
 10
68.963
 20
28.0292
 10
69.0688
 20
27.9436
 10
69.165
 20
27.8474
 10
69.2506
 20
27.7416
 10
69.3247
 20
27.6275
 10
69.3865
 20
27.5062
 10
69.4353
 20
27.3792
 10
69.4705
 20
27.2478
 10
69.4918
 20
27.1134
 10
69.4989
 20
26.9775
 10
69.4918
 20
26.8416
 10
69.4705
 20
26.7072
 10
69.4353
 20
26.5758
 10
69.3865
 20
26.4487
 10
69.3247
 20
26.3275
 10
69.2506
 20
26.2134
 10
69.165
 20
26.1076
 10
69.0688
 20
26.0114
 10
68.963
 20
25.9258
 10
68.8489
 20
25.8517
 10
68.7276
 20
25.7899
 10
68.6006
 20
25.7411
 10
68.4692
 20
25.7059
 10
68.3348
 20
25.6846
 10
68.1989
 20
25.6775
  0
LWPOLYLINE
100
AcDbEntity
  8
0
100
AcDbPolyline
 90
40
 70
1
 10
121.003
 20
22.7579
 10
120.608
 20
22.824
 10
120.229
 20
22.9509
 10
119.874
 20
23.1357
 10
119.552
 20
23.3737
 10
119.272
 20
23.6591
 10
119.039
 20
23.9849
 10
118.861
 20
24.343
 10
118.74
 20
24.7246
 10
118.681
 20
25.1203
 10
118.685
 20
25.5205
 10
118.751
 20
25.9151
 10
118.878
 20
26.2946
 10
119.062
 20
26.6495
 10
119.3
 20
26.9712
 10
119.586
 20
27.2516
 10
119.912
 20
27.484
 10
120.27
 20
27.6625
 10
120.651
 20
27.7829
 10
121.047
 20
27.842
 10
121.447
 20
27.8385
 10
121.842
 20
27.7725
 10
122.221
 20
27.6455
 10
122.576
 20
27.4607
 10
122.898
 20
27.2227
 10
123.178
 20
26.9373
 10
123.411
 20
26.6116
 10
123.589
 20
26.2535
 10
123.71
 20
25.8718
 10
123.769
 20
25.4761
 10
123.765
 20
25.076
 10
123.699
 20
24.6813
 10
123.572
 20
24.3019
 10
123.388
 20
23.9469
 10
123.149
 20
23.6253
 10
122.864
 20
23.3448
 10
122.538
 20
23.1124
 10
122.18
 20
22.9339
 10
121.799
 20
22.8136
 10
121.403
 20
22.7544
  0
LWPOLYLINE
100
AcDbEntity
  8
0
100
AcDbPolyline
 90
40
 70
1
 10
120.742
 20
8.32941
 10
120.347
 20
8.39545
 10
119.968
 20
8.52242
 10
119.613
 20
8.70719
 10
119.291
 20
8.9452
 10
119.011
 20
9.2306
 10
118.778
 20
9.55636
 10
118.6
 20
9.91446
 10
118.479
 20
10.2961
 10
118.42
 20
10.6918
 10
118.424
 20
11.092
 10
118.49
 20
11.4866
 10
118.617
 20
11.8661
 10
118.801
 20
12.221
 10
119.039
 20
12.5427
 10
119.325
 20
12.8231
 10
119.651
 20
13.0555
 10
120.009
 20
13.234
 10
120.39
 20
13.3544
 10
120.786
 20
13.4135
 10
121.186
 20
13.41
 10
121.581
 20
13.344
 10
121.96
 20
13.217
 10
122.315
 20
13.0322
 10
122.637
 20
12.7942
 10
122.917
 20
12.5088
 10
123.15
 20
12.1831
 10
123.328
 20
11.825
 10
123.449
 20
11.4433
 10
123.508
 20
11.0476
 10
123.504
 20
10.6475
 10
123.438
 20
10.2528
 10
123.311
 20
9.87334
 10
123.127
 20
9.51841
 10
122.889
 20
9.19676
 10
122.603
 20
8.9163
 10
122.277
 20
8.68393
 10
121.919
 20
8.50539
 10
121.538
 20
8.38507
 10
121.142
 20
8.32592
  0
LWPOLYLINE
100
AcDbEntity
  8
0
100
AcDbPolyline
 90
4
 70
1
 10
58.7406
 20
7.89711
 10
61.9156
 20
7.89711
 10
61.9156
 20
-12.1029
 10
58.7406
 20
-12.1029
  0
LWPOLYLINE
100
AcDbEntity
  8
0
100
AcDbPolyline
 90
40
 70
1
 10
168.751
 20
-6.24447
 10
168.356
 20
-6.17843
 10
167.977
 20
-6.05146
 10
167.622
 20
-5.86669
 10
167.3
 20
-5.62868
 10
167.019
 20
-5.34328
 10
166.787
 20
-5.01752
 10
166.609
 20
-4.65942
 10
166.488
 20
-4.2778
 10
166.429
 20
-3.88205
 10
166.433
 20
-3.48192
 10
166.499
 20
-3.08727
 10
166.626
 20
-2.70781
 10
166.81
 20
-2.35288
 10
167.048
 20
-2.03122
 10
167.334
 20
-1.75076
 10
167.66
 20
-1.51839
 10
168.018
 20
-1.33985
 10
168.399
 20
-1.21953
 10
168.795
 20
-1.16038
 10
169.195
 20
-1.16387
 10
169.59
 20
-1.22992
 10
169.969
 20
-1.35688
 10
170.324
 20
-1.54165
 10
170.646
 20
-1.77966
 10
170.926
 20
-2.06506
 10
171.159
 20
-2.39082
 10
171.337
 20
-2.74892
 10
171.458
 20
-3.13055
 10
171.517
 20
-3.52629
 10
171.513
 20
-3.92642
 10
171.447
 20
-4.32107
 10
171.32
 20
-4.70054
 10
171.135
 20
-5.05546
 10
170.897
 20
-5.37712
 10
170.612
 20
-5.65758
 10
170.286
 20
-5.88995
 10
169.928
 20
-6.06849
 10
169.547
 20
-6.18881
 10
169.151
 20
-6.24796
  0
LWPOLYLINE
100
AcDbEntity
  8
0
100
AcDbPolyline
 90
60
 70
1
 10
104.563
 20
-10.8154
 10
104.429
 20
-10.7941
 10
104.297
 20
-10.7589
 10
104.17
 20
-10.7101
 10
104.049
 20
-10.6483
 10
103.935
 20
-10.5742
 10
103.829
 20
-10.4886
 10
103.733
 20
-10.3924
 10
103.647
 20
-10.2866
 10
103.573
 20
-10.1725
 10
103.511
 20
-10.0513
 10
103.463
 20
-9.92423
 10
103.427
 20
-9.79279
 10
103.406
 20
-9.6584
 10
103.399
 20
-9.52251
 10
103.406
 20
-9.38662
 10
103.427
 20
-9.25223
 10
103.463
 20
-9.12079
 10
103.511
 20
-8.99375
 10
103.573
 20
-8.87251
 10
103.647
 20
-8.75839
 10
103.733
 20
-8.65264
 10
103.829
 20
-8.55642
 10
103.935
 20
-8.47079
 10
104.049
 20
-8.39668
 10
104.17
 20
-8.3349
 10
104.297
 20
-8.28614
 10
104.429
 20
-8.25092
 10
104.563
 20
-8.22963
 10
104.699
 20
-8.22251
 10
104.835
 20
-8.22963
 10
104.969
 20
-8.25092
 10
105.101
 20
-8.28614
 10
105.228
 20
-8.3349
 10
105.349
 20
-8.39668
 10
105.463
 20
-8.47079
 10
105.569
 20
-8.55642
 10
105.665
 20
-8.65264
 10
105.751
 20
-8.75839
 10
105.825
 20
-8.87251
 10
105.886
 20
-8.99375
 10
105.935
 20
-9.12079
 10
105.97
 20
-9.25223
 10
105.992
 20
-9.38662
 10
105.999
 20
-9.52251
 10
105.992
 20
-9.6584
 10
105.97
 20
-9.79279
 10
105.935
 20
-9.92423
 10
105.886
 20
-10.0513
 10
105.825
 20
-10.1725
 10
105.751
 20
-10.2866
 10
105.665
 20
-10.3924
 10
105.569
 20
-10.4886
 10
105.463
 20
-10.5742
 10
105.349
 20
-10.6483
 10
105.228
 20
-10.7101
 10
105.101
 20
-10.7589
 10
104.969
 20
-10.7941
 10
104.835
 20
-10.8154
 10
104.699
 20
-10.8225
  0
LWPOLYLINE
100
AcDbEntity
  8
0
100
AcDbPolyline
 90
60
 70
1
 10
68.063
 20
-10.8154
 10
67.9286
 20
-10.7941
 10
67.7972
 20
-10.7589
 10
67.6701
 20
-10.7101
 10
67.5489
 20
-10.6483
 10
67.4348
 20
-10.5742
 10
67.329
 20
-10.4886
 10
67.2328
 20
-10.3924
 10
67.1472
 20
-10.2866
 10
67.0731
 20
-10.1725
 10
67.0113
 20
-10.0513
 10
66.9625
 20
-9.92423
 10
66.9273
 20
-9.79279
 10
66.906
 20
-9.6584
 10
66.8989
 20
-9.52251
 10
66.906
 20
-9.38662
 10
66.9273
 20
-9.25223
 10
66.9625
 20
-9.12079
 10
67.0113
 20
-8.99375
 10
67.0731
 20
-8.87251
 10
67.1472
 20
-8.75839
 10
67.2328
 20
-8.65264
 10
67.329
 20
-8.55642
 10
67.4348
 20
-8.47079
 10
67.5489
 20
-8.39668
 10
67.6701
 20
-8.3349
 10
67.7972
 20
-8.28614
 10
67.9286
 20
-8.25092
 10
68.063
 20
-8.22963
 10
68.1989
 20
-8.22251
 10
68.3348
 20
-8.22963
 10
68.4692
 20
-8.25092
 10
68.6006
 20
-8.28614
 10
68.7276
 20
-8.3349
 10
68.8489
 20
-8.39668
 10
68.963
 20
-8.47079
 10
69.0688
 20
-8.55642
 10
69.165
 20
-8.65264
 10
69.2506
 20
-8.75839
 10
69.3247
 20
-8.87251
 10
69.3865
 20
-8.99375
 10
69.4353
 20
-9.12079
 10
69.4705
 20
-9.25223
 10
69.4918
 20
-9.38662
 10
69.4989
 20
-9.52251
 10
69.4918
 20
-9.6584
 10
69.4705
 20
-9.79279
 10
69.4353
 20
-9.92423
 10
69.3865
 20
-10.0513
 10
69.3247
 20
-10.1725
 10
69.2506
 20
-10.2866
 10
69.165
 20
-10.3924
 10
69.0688
 20
-10.4886
 10
68.963
 20
-10.5742
 10
68.8489
 20
-10.6483
 10
68.7276
 20
-10.7101
 10
68.6006
 20
-10.7589
 10
68.4692
 20
-10.7941
 10
68.3348
 20
-10.8154
 10
68.1989
 20
-10.8225
  0
LWPOLYLINE
100
AcDbEntity
  8
0
100
AcDbPolyline
 90
40
 70
1
 10
155.298
 20
-19.1002
 10
154.903
 20
-19.0342
 10
154.524
 20
-18.9072
 10
154.169
 20
-18.7224
 10
153.847
 20
-18.4844
 10
153.567
 20
-18.199
 10
153.334
 20
-17.8732
 10
153.156
 20
-17.5152
 10
153.035
 20
-17.1335
 10
152.976
 20
-16.7378
 10
152.98
 20
-16.3377
 10
153.046
 20
-15.943
 10
153.173
 20
-15.5635
 10
153.357
 20
-15.2086
 10
153.595
 20
-14.887
 10
153.881
 20
-14.6065
 10
154.207
 20
-14.3741
 10
154.565
 20
-14.1956
 10
154.946
 20
-14.0753
 10
155.342
 20
-14.0161
 10
155.742
 20
-14.0196
 10
156.137
 20
-14.0856
 10
156.516
 20
-14.2126
 10
156.871
 20
-14.3974
 10
157.193
 20
-14.6354
 10
157.473
 20
-14.9208
 10
157.706
 20
-15.2466
 10
157.884
 20
-15.6047
 10
158.005
 20
-15.9863
 10
158.064
 20
-16.382
 10
158.06
 20
-16.7822
 10
157.994
 20
-17.1768
 10
157.867
 20
-17.5563
 10
157.683
 20
-17.9112
 10
157.445
 20
-18.2329
 10
157.159
 20
-18.5133
 10
156.833
 20
-18.7457
 10
156.475
 20
-18.9242
 10
156.094
 20
-19.0445
 10
155.698
 20
-19.1037
  0
LWPOLYLINE
100
AcDbEntity
  8
0
100
AcDbPolyline
 90
40
 70
1
 10
116.81
 20
-27.9858
 10
116.415
 20
-27.9197
 10
116.036
 20
-27.7928
 10
115.681
 20
-27.608
 10
115.359
 20
-27.37
 10
115.079
 20
-27.0846
 10
114.847
 20
-26.7588
 10
114.668
 20
-26.4007
 10
114.548
 20
-26.0191
 10
114.489
 20
-25.6233
 10
114.492
 20
-25.2232
 10
114.558
 20
-24.8286
 10
114.685
 20
-24.4491
 10
114.87
 20
-24.0942
 10
115.108
 20
-23.7725
 10
115.393
 20
-23.4921
 10
115.719
 20
-23.2597
 10
116.077
 20
-23.0812
 10
116.459
 20
-22.9608
 10
116.854
 20
-22.9017
 10
117.255
 20
-22.9052
 10
117.649
 20
-22.9712
 10
118.029
 20
-23.0982
 10
118.384
 20
-23.2829
 10
118.705
 20
-23.521
 10
118.986
 20
-23.8064
 10
119.218
 20
-24.1321
 10
119.397
 20
-24.4902
 10
119.517
 20
-24.8718
 10
119.576
 20
-25.2676
 10
119.573
 20
-25.6677
 10
119.507
 20
-26.0624
 10
119.38
 20
-26.4418
 10
119.195
 20
-26.7968
 10
118.957
 20
-27.1184
 10
118.671
 20
-27.3989
 10
118.346
 20
-27.6312
 10
117.988
 20
-27.8098
 10
117.606
 20
-27.9301
 10
117.21
 20
-27.9893
  0
LWPOLYLINE
100
AcDbEntity
  8
0
100
AcDbPolyline
 90
43
 70
1
 10
122.926
 20
-49.3154
 10
121.611
 20
-49.0952
 10
120.346
 20
-48.672
 10
119.163
 20
-48.0561
 10
118.091
 20
-47.2628
 10
118.037
 20
-47.2081
 10
117.156
 20
-46.3114
 10
116.381
 20
-45.2255
 10
115.786
 20
-44.0319
 10
115.385
 20
-42.7598
 10
115.188
 20
-41.4407
 10
115.2
 20
-40.1069
 10
115.42
 20
-38.7914
 10
115.843
 20
-37.5265
 10
116.459
 20
-36.3434
 10
117.252
 20
-35.2712
 10
118.203
 20
-34.3363
 10
119.289
 20
-33.5618
 10
120.483
 20
-32.9667
 10
121.755
 20
-32.5656
 10
139.294
 20
-28.5165
 10
140.613
 20
-28.3193
 10
141.947
 20
-28.3309
 10
143.262
 20
-28.5511
 10
144.527
 20
-28.9743
 10
145.71
 20
-29.5902
 10
146.782
 20
-30.3836
 10
147.717
 20
-31.3349
 10
148.492
 20
-32.4208
 10
149.087
 20
-33.6144
 10
149.488
 20
-34.8865
 10
149.685
 20
-36.2057
 10
149.673
 20
-37.5394
 10
149.453
 20
-38.8549
 10
149.03
 20
-40.1198
 10
148.414
 20
-41.3029
 10
147.621
 20
-42.3751
 10
146.67
 20
-43.31
 10
145.584
 20
-44.0845
 10
144.39
 20
-44.6797
 10
143.118
 20
-45.0807
 10
125.579
 20
-49.1299
 10
124.26
 20
-49.327
  0
LWPOLYLINE
100
AcDbEntity
  8
0
100
AcDbPolyline
 90
5
 70
1
 10
58.7406
 20
-32.1029
 10
61.9156
 20
-32.1029
 10
61.9156
 20
-47.2081
 10
61.9156
 20
-50.3529
 10
58.7406
 20
-50.3529
  0
LWPOLYLINE
100
AcDbEntity
  8
0
100
AcDbPolyline
 90
40
 70
1
 10
86.6976
 20
-42.4858
 10
86.0011
 20
-42.3693
 10
85.3315
 20
-42.1452
 10
84.7051
 20
-41.8192
 10
84.1375
 20
-41.3991
 10
83.6426
 20
-40.8955
 10
83.2325
 20
-40.3206
 10
82.9174
 20
-39.6887
 10
82.7051
 20
-39.0152
 10
82.6007
 20
-38.3168
 10
82.6069
 20
-37.6107
 10
82.7234
 20
-36.9143
 10
82.9475
 20
-36.2446
 10
83.2735
 20
-35.6183
 10
83.6936
 20
-35.0507
 10
84.1972
 20
-34.5557
 10
84.7721
 20
-34.1457
 10
85.404
 20
-33.8306
 10
86.0775
 20
-33.6183
 10
86.7759
 20
-33.5139
 10
87.482
 20
-33.5201
 10
88.1784
 20
-33.6366
 10
88.8481
 20
-33.8607
 10
89.4744
 20
-34.1867
 10
90.042
 20
-34.6067
 10
90.537
 20
-35.1104
 10
90.947
 20
-35.6853
 10
91.2621
 20
-36.3172
 10
91.4744
 20
-36.9907
 10
91.5788
 20
-37.689
 10
91.5726
 20
-38.3951
 10
91.4561
 20
-39.0916
 10
91.232
 20
-39.7612
 10
90.906
 20
-40.3876
 10
90.486
 20
-40.9552
 10
89.9823
 20
-41.4501
 10
89.4074
 20
-41.8602
 10
88.7755
 20
-42.1753
 10
88.102
 20
-42.3876
 10
87.4037
 20
-42.492
  0
LWPOLYLINE
100
AcDbEntity
  8
0
100
AcDbPolyline
 90
40
 70
1
 10
170.795
 20
-46.6753
 10
170.099
 20
-46.5587
 10
169.429
 20
-46.3347
 10
168.803
 20
-46.0086
 10
168.235
 20
-45.5886
 10
167.74
 20
-45.085
 10
167.33
 20
-44.5101
 10
167.015
 20
-43.8781
 10
166.803
 20
-43.2047
 10
166.699
 20
-42.5063
 10
166.705
 20
-41.8002
 10
166.821
 20
-41.1038
 10
167.045
 20
-40.4341
 10
167.371
 20
-39.8078
 10
167.791
 20
-39.2401
 10
168.295
 20
-38.7452
 10
168.87
 20
-38.3352
 10
169.502
 20
-38.0201
 10
170.175
 20
-37.8078
 10
170.874
 20
-37.7034
 10
171.58
 20
-37.7095
 10
172.276
 20
-37.8261
 10
172.946
 20
-38.0501
 10
173.572
 20
-38.3762
 10
174.14
 20
-38.7962
 10
174.635
 20
-39.2999
 10
175.045
 20
-39.8747
 10
175.36
 20
-40.5067
 10
175.572
 20
-41.1801
 10
175.677
 20
-41.8785
 10
175.67
 20
-42.5846
 10
175.554
 20
-43.2811
 10
175.33
 20
-43.9507
 10
175.004
 20
-44.5771
 10
174.584
 20
-45.1447
 10
174.08
 20
-45.6396
 10
173.505
 20
-46.0497
 10
172.873
 20
-46.3647
 10
172.2
 20
-46.5771
 10
171.502
 20
-46.6815
  0
LWPOLYLINE
100
AcDbEntity
  8
0
100
AcDbPolyline
 90
4
 70
1
 10
81.1867
 20
-47.2081
 10
106.187
 20
-47.2081
 10
106.187
 20
-50.3831
 10
81.1867
 20
-50.3831
  0
LWPOLYLINE
100
AcDbEntity
  8
0
100
AcDbPolyline
 90
32
 70
1
 10
-91.5715
 20
-64.2333
 10
-74.0715
 20
-64.2333
 10
-74.0715
 20
-67.3708
 10
-57.6465
 20
-67.3708
 10
-57.6465
 20
-49.1208
 10
-60.809
 20
-49.1208
 10
-60.809
 20
-48.6208
 10
-70.3215
 20
-48.6208
 10
-70.3215
 20
-33.6208
 10
-60.809
 20
-33.6208
 10
-60.809
 20
-29.1208
 10
-57.6465
 20
-29.1208
 10
-57.6465
 20
-9.12084
 10
-60.809
 20
-9.12084
 10
-60.809
 20
10.8792
 10
-57.6465
 20
10.8792
 10
-57.6465
 20
32.6292
 10
-74.0715
 20
32.6292
 10
-74.0715
 20
29.7917
 10
-91.5715
 20
29.7917
 10
-91.5715
 20
32.6292
 10
-107.996
 20
32.6292
 10
-107.996
 20
10.8792
 10
-104.834
 20
10.8792
 10
-104.834
 20
-9.12084
 10
-107.996
 20
-9.12084
 10
-107.996
 20
-29.1208
 10
-104.834
 20
-29.1208
 10
-104.834
 20
-49.1208
 10
-107.996
 20
-49.1208
 10
-107.996
 20
-67.3708
 10
-91.5715
 20
-67.3708
  0
LWPOLYLINE
100
AcDbEntity
  8
0
100
AcDbPolyline
 90
16
 70
1
 10
32.7456
 20
-109.706
 10
55.7456
 20
-109.706
 10
55.7456
 20
-65.6808
 10
37.7456
 20
-65.6808
 10
37.7456
 20
-62.5183
 10
2.74559
 20
-62.5183
 10
2.74559
 20
-65.6808
 10
-11.6669
 20
-65.6808
 10
-11.6669
 20
-79.1433
 10
-14.7544
 20
-79.1433
 10
-14.7544
 20
-96.2433
 10
-11.6669
 20
-96.2433
 10
-11.6669
 20
-109.706
 10
7.74559
 20
-109.706
 10
7.74559
 20
-112.868
 10
32.7456
 20
-112.868
  0
LWPOLYLINE
100
AcDbEntity
  8
0
100
AcDbPolyline
 90
60
 70
1
 10
44.6289
 20
-89.561
 10
44.0189
 20
-89.4644
 10
43.4224
 20
-89.3045
 10
42.8458
 20
-89.0832
 10
42.2956
 20
-88.8029
 10
41.7777
 20
-88.4665
 10
41.2977
 20
-88.0779
 10
40.861
 20
-87.6412
 10
40.4724
 20
-87.1612
 10
40.136
 20
-86.6433
 10
39.8557
 20
-86.0931
 10
39.6344
 20
-85.5165
 10
39.4745
 20
-84.92
 10
39.3779
 20
-84.31
 10
39.3456
 20
-83.6933
 10
39.3779
 20
-83.0766
 10
39.4745
 20
-82.4666
 10
39.6344
 20
-81.8701
 10
39.8557
 20
-81.2936
 10
40.136
 20
-80.7433
 10
40.4724
 20
-80.2254
 10
40.861
 20
-79.7454
 10
41.2977
 20
-79.3088
 10
41.7777
 20
-78.9201
 10
42.2956
 20
-78.5838
 10
42.8458
 20
-78.3034
 10
43.4224
 20
-78.0821
 10
44.0189
 20
-77.9222
 10
44.6289
 20
-77.8256
 10
45.2456
 20
-77.7933
 10
45.8623
 20
-77.8256
 10
46.4723
 20
-77.9222
 10
47.0688
 20
-78.0821
 10
47.6453
 20
-78.3034
 10
48.1956
 20
-78.5838
 10
48.7135
 20
-78.9201
 10
49.1935
 20
-79.3088
 10
49.6301
 20
-79.7454
 10
50.0188
 20
-80.2254
 10
50.3551
 20
-80.7433
 10
50.6355
 20
-81.2936
 10
50.8568
 20
-81.8701
 10
51.0167
 20
-82.4666
 10
51.1133
 20
-83.0766
 10
51.1456
 20
-83.6933
 10
51.1133
 20
-84.31
 10
51.0167
 20
-84.92
 10
50.8568
 20
-85.5165
 10
50.6355
 20
-86.0931
 10
50.3551
 20
-86.6433
 10
50.0188
 20
-87.1612
 10
49.6301
 20
-87.6412
 10
49.1935
 20
-88.0779
 10
48.7135
 20
-88.4665
 10
48.1956
 20
-88.8029
 10
47.6453
 20
-89.0832
 10
47.0688
 20
-89.3045
 10
46.4723
 20
-89.4644
 10
45.8623
 20
-89.561
 10
45.2456
 20
-89.5933
  0
LWPOLYLINE
100
AcDbEntity
  8
0
100
AcDbPolyline
 90
60
 70
1
 10
31.932
 20
-84.6769
 10
31.6219
 20
-84.6277
 10
31.3185
 20
-84.5465
 10
31.0254
 20
-84.4339
 10
30.7456
 20
-84.2914
 10
30.4822
 20
-84.1204
 10
30.2382
 20
-83.9227
 10
30.0162
 20
-83.7007
 10
29.8185
 20
-83.4567
 10
29.6475
 20
-83.1933
 10
29.505
 20
-82.9135
 10
29.3924
 20
-82.6204
 10
29.3112
 20
-82.317
 10
29.262
 20
-82.0069
 10
29.2456
 20
-81.6933
 10
29.262
 20
-81.3797
 10
29.3112
 20
-81.0696
 10
29.3924
 20
-80.7663
 10
29.505
 20
-80.4731
 10
29.6475
 20
-80.1933
 10
29.8185
 20
-79.93
 10
30.0162
 20
-79.6859
 10
30.2382
 20
-79.4639
 10
30.4822
 20
-79.2663
 10
30.7456
 20
-79.0952
 10
31.0254
 20
-78.9527
 10
31.3185
 20
-78.8401
 10
31.6219
 20
-78.7589
 10
31.932
 20
-78.7097
 10
32.2456
 20
-78.6933
 10
32.5592
 20
-78.7097
 10
32.8693
 20
-78.7589
 10
33.1726
 20
-78.8401
 10
33.4658
 20
-78.9527
 10
33.7456
 20
-79.0952
 10
34.009
 20
-79.2663
 10
34.253
 20
-79.4639
 10
34.475
 20
-79.6859
 10
34.6726
 20
-79.93
 10
34.8437
 20
-80.1933
 10
34.9862
 20
-80.4731
 10
35.0988
 20
-80.7663
 10
35.18
 20
-81.0696
 10
35.2292
 20
-81.3797
 10
35.2456
 20
-81.6933
 10
35.2292
 20
-82.0069
 10
35.18
 20
-82.317
 10
35.0988
 20
-82.6204
 10
34.9862
 20
-82.9135
 10
34.8437
 20
-83.1933
 10
34.6726
 20
-83.4567
 10
34.475
 20
-83.7007
 10
34.253
 20
-83.9227
 10
34.009
 20
-84.1204
 10
33.7456
 20
-84.2914
 10
33.4658
 20
-84.4339
 10
33.1726
 20
-84.5465
 10
32.8693
 20
-84.6277
 10
32.5592
 20
-84.6769
 10
32.2456
 20
-84.6933
  0
ENDSEC
  0
EOF
