  0
SECTION
  2
BLOCKS
  0
ENDSEC
  0
SECTION
  2
ENTITIES
  0
LINE
  8
0
 10
-2.49609
 20
63.4371
 11
14.0039
 21
63.4371
  0
LINE
  8
0
 10
14.0039
 20
63.4371
 11
14.0039
 21
92.4621
  0
LINE
  8
0
 10
14.0039
 20
92.4621
 11
-2.49609
 21
92.4621
  0
LINE
  8
0
 10
-2.49609
 20
92.4621
 11
-2.49608
 21
95.6246
  0
LINE
  8
0
 10
-2.49608
 20
95.6246
 11
-33.4961
 21
95.6246
  0
LINE
  8
0
 10
-33.4961
 20
95.6246
 11
-33.4961
 21
92.4621
  0
LINE
  8
0
 10
-33.4961
 20
92.4621
 11
-51.9086
 21
92.4621
  0
LINE
  8
0
 10
-51.9086
 20
92.4621
 11
-51.9086
 21
86.5496
  0
LINE
  8
0
 10
-51.9086
 20
86.5496
 11
-54.9961
 21
86.5496
  0
LINE
  8
0
 10
-54.9961
 20
86.5496
 11
-54.9961
 21
69.3496
  0
LINE
  8
0
 10
-54.9961
 20
69.3496
 11
-51.9086
 21
69.3496
  0
LINE
  8
0
 10
-51.9086
 20
69.3496
 11
-51.9086
 21
63.4371
  0
LINE
  8
0
 10
-51.9086
 20
63.4371
 11
-33.4961
 21
63.4371
  0
LINE
  8
0
 10
-33.4961
 20
63.4371
 11
-33.4961
 21
60.2746
  0
LINE
  8
0
 10
-33.4961
 20
60.2746
 11
-2.49608
 21
60.2746
  0
LINE
  8
0
 10
-2.49608
 20
60.2746
 11
-2.49609
 21
63.4371
  0
LINE
  8
0
 10
41.0453
 20
-54.9452
 11
42.0791
 21
-54.7815
  0
LINE
  8
0
 10
42.0791
 20
-54.7815
 11
43.0901
 21
-54.5106
  0
LINE
  8
0
 10
43.0901
 20
-54.5106
 11
44.0674
 21
-54.1355
  0
LINE
  8
0
 10
44.0674
 20
-54.1355
 11
45
 21
-53.6602
  0
LINE
  8
0
 10
45
 20
-53.6602
 11
45.8778
 21
-53.0902
  0
LINE
  8
0
 10
45.8778
 20
-53.0902
 11
46.6913
 21
-52.4314
  0
LINE
  8
0
 10
46.6913
 20
-52.4314
 11
47.4314
 21
-51.6913
  0
LINE
  8
0
 10
47.4314
 20
-51.6913
 11
48.0901
 21
-50.8778
  0
LINE
  8
0
 10
48.0901
 20
-50.8778
 11
48.6602
 21
-50
  0
LINE
  8
0
 10
48.6602
 20
-50
 11
49.1354
 21
-49.0674
  0
LINE
  8
0
 10
49.1354
 20
-49.0674
 11
49.5106
 21
-48.0902
  0
LINE
  8
0
 10
49.5106
 20
-48.0902
 11
49.7814
 21
-47.0791
  0
LINE
  8
0
 10
49.7814
 20
-47.0791
 11
49.9452
 21
-46.0453
  0
LINE
  8
0
 10
49.9452
 20
-46.0453
 11
50
 21
-45
  0
LINE
  8
0
 10
50
 20
-45
 11
50
 21
-6.34322
  0
LINE
  8
0
 10
50
 20
-6.34322
 11
49.4658
 21
-6.38057
  0
LINE
  8
0
 10
49.4658
 20
-6.38057
 11
46.3275
 21
-6.27098
  0
LINE
  8
0
 10
46.3275
 20
-6.27098
 11
43.2179
 21
-5.83395
  0
LINE
  8
0
 10
43.2179
 20
-5.83395
 11
40.171
 21
-5.07428
  0
LINE
  8
0
 10
40.171
 20
-5.07428
 11
37.2203
 21
-4.00029
  0
LINE
  8
0
 10
37.2203
 20
-4.00029
 11
34.3979
 21
-2.62373
  0
LINE
  8
0
 10
34.3979
 20
-2.62373
 11
31.7349
 21
-0.959702
  0
LINE
  8
0
 10
31.7349
 20
-0.959702
 11
29.2604
 21
0.973557
  0
LINE
  8
0
 10
29.2604
 20
0.973557
 11
27.0016
 21
3.15491
  0
LINE
  8
0
 10
27.0016
 20
3.15491
 11
24.9831
 21
5.56039
  0
LINE
  8
0
 10
24.9831
 20
5.56039
 11
23.2272
 21
8.16368
  0
LINE
  8
0
 10
23.2272
 20
8.16368
 11
21.753
 21
10.9363
  0
LINE
  8
0
 10
21.753
 20
10.9363
 11
20.5766
 21
13.8478
  0
LINE
  8
0
 10
20.5766
 20
13.8478
 11
19.7111
 21
16.8663
  0
LINE
  8
0
 10
19.7111
 20
16.8663
 11
19.6989
 21
16.9357
  0
LINE
  8
0
 10
19.6989
 20
16.9357
 11
19.5417
 21
16.8722
  0
LINE
  8
0
 10
19.5417
 20
16.8722
 11
18.7367
 21
16.6414
  0
LINE
  8
0
 10
18.7367
 20
16.6414
 11
17.9121
 21
16.4959
  0
LINE
  8
0
 10
17.9121
 20
16.4959
 11
17.0767
 21
16.4375
  0
LINE
  8
0
 10
17.0767
 20
16.4375
 11
16.2399
 21
16.4668
  0
LINE
  8
0
 10
16.2399
 20
16.4668
 11
15.4106
 21
16.5833
  0
LINE
  8
0
 10
15.4106
 20
16.5833
 11
14.5981
 21
16.7859
  0
LINE
  8
0
 10
14.5981
 20
16.7859
 11
13.8113
 21
17.0723
  0
LINE
  8
0
 10
13.8113
 20
17.0723
 11
13.0586
 21
17.4394
  0
LINE
  8
0
 10
13.0586
 20
17.4394
 11
12.3485
 21
17.8831
  0
LINE
  8
0
 10
12.3485
 20
17.8831
 11
11.6886
 21
18.3986
  0
LINE
  8
0
 10
11.6886
 20
18.3986
 11
11.0863
 21
18.9803
  0
LINE
  8
0
 10
11.0863
 20
18.9803
 11
10.548
 21
19.6218
  0
LINE
  8
0
 10
10.548
 20
19.6218
 11
10.0798
 21
20.316
  0
LINE
  8
0
 10
10.0798
 20
20.316
 11
9.68663
 21
21.0554
  0
LINE
  8
0
 10
9.68663
 20
21.0554
 11
9.37296
 21
21.8318
  0
LINE
  8
0
 10
9.37296
 20
21.8318
 11
9.14215
 21
22.6367
  0
LINE
  8
0
 10
9.14215
 20
22.6367
 11
8.99673
 21
23.4614
  0
LINE
  8
0
 10
8.99673
 20
23.4614
 11
8.93832
 21
24.2967
  0
LINE
  8
0
 10
8.93832
 20
24.2967
 11
8.96754
 21
25.1335
  0
LINE
  8
0
 10
8.96754
 20
25.1335
 11
9.08409
 21
25.9628
  0
LINE
  8
0
 10
9.08409
 20
25.9628
 11
9.28667
 21
26.7753
  0
LINE
  8
0
 10
9.28667
 20
26.7753
 11
9.57307
 21
27.5621
  0
LINE
  8
0
 10
9.57307
 20
27.5621
 11
9.94016
 21
28.3148
  0
LINE
  8
0
 10
9.94016
 20
28.3148
 11
10.3839
 21
29.0249
  0
LINE
  8
0
 10
10.3839
 20
29.0249
 11
10.8994
 21
29.6848
  0
LINE
  8
0
 10
10.8994
 20
29.6848
 11
11.4811
 21
30.2871
  0
LINE
  8
0
 10
11.4811
 20
30.2871
 11
12.1226
 21
30.8254
  0
LINE
  8
0
 10
12.1226
 20
30.8254
 11
12.8168
 21
31.2936
  0
LINE
  8
0
 10
12.8168
 20
31.2936
 11
13.5562
 21
31.6868
  0
LINE
  8
0
 10
13.5562
 20
31.6868
 11
14.3326
 21
32.0005
  0
LINE
  8
0
 10
14.3326
 20
32.0005
 11
15.1375
 21
32.2313
  0
LINE
  8
0
 10
15.1375
 20
32.2313
 11
15.9622
 21
32.3767
  0
LINE
  8
0
 10
15.9622
 20
32.3767
 11
16.7975
 21
32.4351
  0
LINE
  8
0
 10
16.7975
 20
32.4351
 11
17.6344
 21
32.4059
  0
LINE
  8
0
 10
17.6344
 20
32.4059
 11
18.4636
 21
32.2893
  0
LINE
  8
0
 10
18.4636
 20
32.2893
 11
19.2761
 21
32.0867
  0
LINE
  8
0
 10
19.2761
 20
32.0867
 11
20.063
 21
31.8003
  0
LINE
  8
0
 10
20.063
 20
31.8003
 11
20.1022
 21
31.7812
  0
LINE
  8
0
 10
20.1022
 20
31.7812
 11
20.253
 21
32.386
  0
LINE
  8
0
 10
20.253
 20
32.386
 11
21.327
 21
35.3368
  0
LINE
  8
0
 10
21.327
 20
35.3368
 11
22.7036
 21
38.1591
  0
LINE
  8
0
 10
22.7036
 20
38.1591
 11
24.3676
 21
40.8221
  0
LINE
  8
0
 10
24.3676
 20
40.8221
 11
26.3009
 21
43.2966
  0
LINE
  8
0
 10
26.3009
 20
43.2966
 11
28.4822
 21
45.5555
  0
LINE
  8
0
 10
28.4822
 20
45.5555
 11
28.9127
 21
45.9167
  0
LINE
  8
0
 10
28.9127
 20
45.9167
 11
28.599
 21
46.5067
  0
LINE
  8
0
 10
28.599
 20
46.5067
 11
28.0109
 21
47.9624
  0
LINE
  8
0
 10
28.0109
 20
47.9624
 11
27.5781
 21
49.4717
  0
LINE
  8
0
 10
27.5781
 20
49.4717
 11
27.3055
 21
51.0179
  0
LINE
  8
0
 10
27.3055
 20
51.0179
 11
27.1959
 21
52.5842
  0
LINE
  8
0
 10
27.1959
 20
52.5842
 11
27.2507
 21
54.1533
  0
LINE
  8
0
 10
27.2507
 20
54.1533
 11
27.3697
 21
55
  0
LINE
  8
0
 10
27.3697
 20
55
 11
-40
 21
55
  0
LINE
  8
0
 10
-40
 20
55
 11
-41.0453
 21
54.9452
  0
LINE
  8
0
 10
-41.0453
 20
54.9452
 11
-42.0791
 21
54.7815
  0
LINE
  8
0
 10
-42.0791
 20
54.7815
 11
-43.0901
 21
54.5106
  0
LINE
  8
0
 10
-43.0901
 20
54.5106
 11
-44.0674
 21
54.1355
  0
LINE
  8
0
 10
-44.0674
 20
54.1355
 11
-45
 21
53.6602
  0
LINE
  8
0
 10
-45
 20
53.6602
 11
-45.8778
 21
53.0902
  0
LINE
  8
0
 10
-45.8778
 20
53.0902
 11
-46.6913
 21
52.4314
  0
LINE
  8
0
 10
-46.6913
 20
52.4314
 11
-47.4314
 21
51.6913
  0
LINE
  8
0
 10
-47.4314
 20
51.6913
 11
-48.0901
 21
50.8778
  0
LINE
  8
0
 10
-48.0901
 20
50.8778
 11
-48.6602
 21
50
  0
LINE
  8
0
 10
-48.6602
 20
50
 11
-49.1354
 21
49.0674
  0
LINE
  8
0
 10
-49.1354
 20
49.0674
 11
-49.5106
 21
48.0902
  0
LINE
  8
0
 10
-49.5106
 20
48.0902
 11
-49.7814
 21
47.0791
  0
LINE
  8
0
 10
-49.7814
 20
47.0791
 11
-49.9452
 21
46.0453
  0
LINE
  8
0
 10
-49.9452
 20
46.0453
 11
-50
 21
45
  0
LINE
  8
0
 10
-50
 20
45
 11
-50
 21
-45
  0
LINE
  8
0
 10
-50
 20
-45
 11
-49.9452
 21
-46.0453
  0
LINE
  8
0
 10
-49.9452
 20
-46.0453
 11
-49.7815
 21
-47.0791
  0
LINE
  8
0
 10
-49.7815
 20
-47.0791
 11
-49.5105
 21
-48.0902
  0
LINE
  8
0
 10
-49.5105
 20
-48.0902
 11
-49.1354
 21
-49.0674
  0
LINE
  8
0
 10
-49.1354
 20
-49.0674
 11
-48.6602
 21
-50
  0
LINE
  8
0
 10
-48.6602
 20
-50
 11
-48.0902
 21
-50.8778
  0
LINE
  8
0
 10
-48.0902
 20
-50.8778
 11
-47.4314
 21
-51.6913
  0
LINE
  8
0
 10
-47.4314
 20
-51.6913
 11
-46.6913
 21
-52.4314
  0
LINE
  8
0
 10
-46.6913
 20
-52.4314
 11
-45.8778
 21
-53.0901
  0
LINE
  8
0
 10
-45.8778
 20
-53.0901
 11
-45
 21
-53.6602
  0
LINE
  8
0
 10
-45
 20
-53.6602
 11
-44.0674
 21
-54.1354
  0
LINE
  8
0
 10
-44.0674
 20
-54.1354
 11
-43.0901
 21
-54.5105
  0
LINE
  8
0
 10
-43.0901
 20
-54.5105
 11
-42.0791
 21
-54.7815
  0
LINE
  8
0
 10
-42.0791
 20
-54.7815
 11
-41.0453
 21
-54.9452
  0
LINE
  8
0
 10
-41.0453
 20
-54.9452
 11
-40
 21
-55
  0
LINE
  8
0
 10
-40
 20
-55
 11
40
 21
-55
  0
LINE
  8
0
 10
40
 20
-55
 11
41.0453
 21
-54.9452
  0
LINE
  8
0
 10
-24.5739
 20
46.6065
 11
-24.5739
 21
49.7815
  0
LINE
  8
0
 10
-24.5739
 20
49.7815
 11
6.42613
 21
49.7815
  0
LINE
  8
0
 10
6.42613
 20
49.7815
 11
6.42613
 21
46.6065
  0
LINE
  8
0
 10
6.42613
 20
46.6065
 11
-24.5739
 21
46.6065
  0
LINE
  8
0
 10
-46.2594
 20
27.8971
 11
-46.2594
 21
49.6471
  0
LINE
  8
0
 10
-46.2594
 20
49.6471
 11
-43.0844
 21
49.6471
  0
LINE
  8
0
 10
-43.0844
 20
49.6471
 11
-43.0844
 21
27.8971
  0
LINE
  8
0
 10
-43.0844
 20
27.8971
 11
-46.2594
 21
27.8971
  0
LINE
  8
0
 10
-33.0027
 20
10.2968
 11
-33.0027
 21
34.2968
  0
LINE
  8
0
 10
-33.0027
 20
34.2968
 11
-14.3015
 21
34.2968
  0
LINE
  8
0
 10
-14.3015
 20
34.2968
 11
-14.4713
 21
34.5486
  0
LINE
  8
0
 10
-14.4713
 20
34.5486
 11
-14.6433
 21
34.872
  0
LINE
  8
0
 10
-14.6433
 20
34.872
 11
-14.7805
 21
35.2117
  0
LINE
  8
0
 10
-14.7805
 20
35.2117
 11
-14.8815
 21
35.5639
  0
LINE
  8
0
 10
-14.8815
 20
35.5639
 11
-14.9451
 21
35.9247
  0
LINE
  8
0
 10
-14.9451
 20
35.9247
 11
-14.9707
 21
36.2901
  0
LINE
  8
0
 10
-14.9707
 20
36.2901
 11
-14.9579
 21
36.6562
  0
LINE
  8
0
 10
-14.9579
 20
36.6562
 11
-14.9069
 21
37.019
  0
LINE
  8
0
 10
-14.9069
 20
37.019
 11
-14.8183
 21
37.3745
  0
LINE
  8
0
 10
-14.8183
 20
37.3745
 11
-14.693
 21
37.7188
  0
LINE
  8
0
 10
-14.693
 20
37.7188
 11
-14.5324
 21
38.048
  0
LINE
  8
0
 10
-14.5324
 20
38.048
 11
-14.3383
 21
38.3587
  0
LINE
  8
0
 10
-14.3383
 20
38.3587
 11
-14.1127
 21
38.6474
  0
LINE
  8
0
 10
-14.1127
 20
38.6474
 11
-13.8582
 21
38.9109
  0
LINE
  8
0
 10
-13.8582
 20
38.9109
 11
-13.5776
 21
39.1464
  0
LINE
  8
0
 10
-13.5776
 20
39.1464
 11
-13.2739
 21
39.3513
  0
LINE
  8
0
 10
-13.2739
 20
39.3513
 11
-12.9504
 21
39.5233
  0
LINE
  8
0
 10
-12.9504
 20
39.5233
 11
-12.6107
 21
39.6605
  0
LINE
  8
0
 10
-12.6107
 20
39.6605
 11
-12.2586
 21
39.7615
  0
LINE
  8
0
 10
-12.2586
 20
39.7615
 11
-11.8978
 21
39.8251
  0
LINE
  8
0
 10
-11.8978
 20
39.8251
 11
-11.5323
 21
39.8507
  0
LINE
  8
0
 10
-11.5323
 20
39.8507
 11
-11.1662
 21
39.8379
  0
LINE
  8
0
 10
-11.1662
 20
39.8379
 11
-10.8034
 21
39.7869
  0
LINE
  8
0
 10
-10.8034
 20
39.7869
 11
-10.4479
 21
39.6983
  0
LINE
  8
0
 10
-10.4479
 20
39.6983
 11
-10.1037
 21
39.573
  0
LINE
  8
0
 10
-10.1037
 20
39.573
 11
-9.7744
 21
39.4124
  0
LINE
  8
0
 10
-9.7744
 20
39.4124
 11
-9.46371
 21
39.2182
  0
LINE
  8
0
 10
-9.46371
 20
39.2182
 11
-9.17502
 21
38.9927
  0
LINE
  8
0
 10
-9.17502
 20
38.9927
 11
-8.91151
 21
38.7382
  0
LINE
  8
0
 10
-8.91151
 20
38.7382
 11
-8.67603
 21
38.4576
  0
LINE
  8
0
 10
-8.67603
 20
38.4576
 11
-8.47116
 21
38.1538
  0
LINE
  8
0
 10
-8.47116
 20
38.1538
 11
-8.29918
 21
37.8304
  0
LINE
  8
0
 10
-8.29918
 20
37.8304
 11
-8.16193
 21
37.4907
  0
LINE
  8
0
 10
-8.16193
 20
37.4907
 11
-8.06094
 21
37.1385
  0
LINE
  8
0
 10
-8.06094
 20
37.1385
 11
-7.99733
 21
36.7777
  0
LINE
  8
0
 10
-7.99733
 20
36.7777
 11
-7.97179
 21
36.4123
  0
LINE
  8
0
 10
-7.97179
 20
36.4123
 11
-7.98457
 21
36.0462
  0
LINE
  8
0
 10
-7.98457
 20
36.0462
 11
-8.03555
 21
35.6834
  0
LINE
  8
0
 10
-8.03555
 20
35.6834
 11
-8.12418
 21
35.3279
  0
LINE
  8
0
 10
-8.12418
 20
35.3279
 11
-8.24947
 21
34.9836
  0
LINE
  8
0
 10
-8.24947
 20
34.9836
 11
-8.41006
 21
34.6544
  0
LINE
  8
0
 10
-8.41006
 20
34.6544
 11
-8.6042
 21
34.3437
  0
LINE
  8
0
 10
-8.6042
 20
34.3437
 11
-8.64085
 21
34.2968
  0
LINE
  8
0
 10
-8.64085
 20
34.2968
 11
-5.00272
 21
34.2968
  0
LINE
  8
0
 10
-5.00272
 20
34.2968
 11
-5.00272
 21
10.2968
  0
LINE
  8
0
 10
-5.00272
 20
10.2968
 11
-33.0027
 21
10.2968
  0
LINE
  8
0
 10
-46.2594
 20
-12.1029
 11
-46.2594
 21
7.89709
  0
LINE
  8
0
 10
-46.2594
 20
7.89709
 11
-43.0844
 21
7.89709
  0
LINE
  8
0
 10
-43.0844
 20
7.89709
 11
-43.0844
 21
-12.1029
  0
LINE
  8
0
 10
-43.0844
 20
-12.1029
 11
-46.2594
 21
-12.1029
  0
LINE
  8
0
 10
9.64082
 20
-9.01192
 11
9.42834
 21
-8.98204
  0
LINE
  8
0
 10
9.42834
 20
-8.98204
 11
9.22014
 21
-8.93013
  0
LINE
  8
0
 10
9.22014
 20
-8.93013
 11
9.01849
 21
-8.85675
  0
LINE
  8
0
 10
9.01849
 20
-8.85675
 11
8.82565
 21
-8.76268
  0
LINE
  8
0
 10
8.82565
 20
-8.76268
 11
8.64368
 21
-8.64897
  0
LINE
  8
0
 10
8.64368
 20
-8.64897
 11
8.47458
 21
-8.51686
  0
LINE
  8
0
 10
8.47458
 20
-8.51686
 11
8.32022
 21
-8.36781
  0
LINE
  8
0
 10
8.32022
 20
-8.36781
 11
8.1823
 21
-8.20343
  0
LINE
  8
0
 10
8.1823
 20
-8.20343
 11
8.0623
 21
-8.02554
  0
LINE
  8
0
 10
8.0623
 20
-8.02554
 11
7.96158
 21
-7.83607
  0
LINE
  8
0
 10
7.96158
 20
-7.83607
 11
7.8812
 21
-7.63713
  0
LINE
  8
0
 10
7.8812
 20
-7.63713
 11
7.82205
 21
-7.43085
  0
LINE
  8
0
 10
7.82205
 20
-7.43085
 11
7.78479
 21
-7.21954
  0
LINE
  8
0
 10
7.78479
 20
-7.21954
 11
7.76982
 21
-7.00549
  0
LINE
  8
0
 10
7.76982
 20
-7.00549
 11
7.7773
 21
-6.79103
  0
LINE
  8
0
 10
7.7773
 20
-6.79103
 11
7.80717
 21
-6.57855
  0
LINE
  8
0
 10
7.80717
 20
-6.57855
 11
7.85909
 21
-6.37035
  0
LINE
  8
0
 10
7.85909
 20
-6.37035
 11
7.93246
 21
-6.1687
  0
LINE
  8
0
 10
7.93246
 20
-6.1687
 11
8.02654
 21
-5.97586
  0
LINE
  8
0
 10
8.02654
 20
-5.97586
 11
8.14024
 21
-5.79388
  0
LINE
  8
0
 10
8.14024
 20
-5.79388
 11
8.27234
 21
-5.62479
  0
LINE
  8
0
 10
8.27234
 20
-5.62479
 11
8.4214
 21
-5.47043
  0
LINE
  8
0
 10
8.4214
 20
-5.47043
 11
8.58578
 21
-5.3325
  0
LINE
  8
0
 10
8.58578
 20
-5.3325
 11
8.76367
 21
-5.21251
  0
LINE
  8
0
 10
8.76367
 20
-5.21251
 11
8.95314
 21
-5.11179
  0
LINE
  8
0
 10
8.95314
 20
-5.11179
 11
9.15208
 21
-5.0314
  0
LINE
  8
0
 10
9.15208
 20
-5.0314
 11
9.35837
 21
-4.97226
  0
LINE
  8
0
 10
9.35837
 20
-4.97226
 11
9.56967
 21
-4.935
  0
LINE
  8
0
 10
9.56967
 20
-4.935
 11
9.78372
 21
-4.92003
  0
LINE
  8
0
 10
9.78372
 20
-4.92003
 11
9.99818
 21
-4.92751
  0
LINE
  8
0
 10
9.99818
 20
-4.92751
 11
10.2107
 21
-4.95738
  0
LINE
  8
0
 10
10.2107
 20
-4.95738
 11
10.4189
 21
-5.00928
  0
LINE
  8
0
 10
10.4189
 20
-5.00928
 11
10.6205
 21
-5.08267
  0
LINE
  8
0
 10
10.6205
 20
-5.08267
 11
10.8134
 21
-5.17674
  0
LINE
  8
0
 10
10.8134
 20
-5.17674
 11
10.9953
 21
-5.29045
  0
LINE
  8
0
 10
10.9953
 20
-5.29045
 11
11.1644
 21
-5.42255
  0
LINE
  8
0
 10
11.1644
 20
-5.42255
 11
11.3188
 21
-5.57161
  0
LINE
  8
0
 10
11.3188
 20
-5.57161
 11
11.4567
 21
-5.73599
  0
LINE
  8
0
 10
11.4567
 20
-5.73599
 11
11.5767
 21
-5.91388
  0
LINE
  8
0
 10
11.5767
 20
-5.91388
 11
11.6774
 21
-6.10335
  0
LINE
  8
0
 10
11.6774
 20
-6.10335
 11
11.7578
 21
-6.30229
  0
LINE
  8
0
 10
11.7578
 20
-6.30229
 11
11.817
 21
-6.50856
  0
LINE
  8
0
 10
11.817
 20
-6.50856
 11
11.8542
 21
-6.71988
  0
LINE
  8
0
 10
11.8542
 20
-6.71988
 11
11.8692
 21
-6.93393
  0
LINE
  8
0
 10
11.8692
 20
-6.93393
 11
11.8617
 21
-7.14838
  0
LINE
  8
0
 10
11.8617
 20
-7.14838
 11
11.8318
 21
-7.36087
  0
LINE
  8
0
 10
11.8318
 20
-7.36087
 11
11.7799
 21
-7.56908
  0
LINE
  8
0
 10
11.7799
 20
-7.56908
 11
11.7065
 21
-7.77071
  0
LINE
  8
0
 10
11.7065
 20
-7.77071
 11
11.6125
 21
-7.96356
  0
LINE
  8
0
 10
11.6125
 20
-7.96356
 11
11.4988
 21
-8.14554
  0
LINE
  8
0
 10
11.4988
 20
-8.14554
 11
11.3667
 21
-8.31464
  0
LINE
  8
0
 10
11.3667
 20
-8.31464
 11
11.2176
 21
-8.46898
  0
LINE
  8
0
 10
11.2176
 20
-8.46898
 11
11.0532
 21
-8.6069
  0
LINE
  8
0
 10
11.0532
 20
-8.6069
 11
10.8753
 21
-8.7269
  0
LINE
  8
0
 10
10.8753
 20
-8.7269
 11
10.6859
 21
-8.82764
  0
LINE
  8
0
 10
10.6859
 20
-8.82764
 11
10.4869
 21
-8.90802
  0
LINE
  8
0
 10
10.4869
 20
-8.90802
 11
10.2807
 21
-8.96716
  0
LINE
  8
0
 10
10.2807
 20
-8.96716
 11
10.0693
 21
-9.00443
  0
LINE
  8
0
 10
10.0693
 20
-9.00443
 11
9.85529
 21
-9.01939
  0
LINE
  8
0
 10
9.85529
 20
-9.01939
 11
9.64082
 21
-9.01192
  0
LINE
  8
0
 10
-33.0643
 20
-28.7892
 11
-33.4261
 21
-28.7319
  0
LINE
  8
0
 10
-33.4261
 20
-28.7319
 11
-33.78
 21
-28.637
  0
LINE
  8
0
 10
-33.78
 20
-28.637
 11
-34.122
 21
-28.5058
  0
LINE
  8
0
 10
-34.122
 20
-28.5058
 11
-34.4484
 21
-28.3394
  0
LINE
  8
0
 10
-34.4484
 20
-28.3394
 11
-34.7556
 21
-28.1399
  0
LINE
  8
0
 10
-34.7556
 20
-28.1399
 11
-35.0404
 21
-27.9093
  0
LINE
  8
0
 10
-35.0404
 20
-27.9093
 11
-35.2994
 21
-27.6503
  0
LINE
  8
0
 10
-35.2994
 20
-27.6503
 11
-35.53
 21
-27.3656
  0
LINE
  8
0
 10
-35.53
 20
-27.3656
 11
-35.7295
 21
-27.0583
  0
LINE
  8
0
 10
-35.7295
 20
-27.0583
 11
-35.8958
 21
-26.7319
  0
LINE
  8
0
 10
-35.8958
 20
-26.7319
 11
-36.0271
 21
-26.3899
  0
LINE
  8
0
 10
-36.0271
 20
-26.3899
 11
-36.1219
 21
-26.036
  0
LINE
  8
0
 10
-36.1219
 20
-26.036
 11
-36.1792
 21
-25.6742
  0
LINE
  8
0
 10
-36.1792
 20
-25.6742
 11
-36.1984
 21
-25.3083
  0
LINE
  8
0
 10
-36.1984
 20
-25.3083
 11
-36.1792
 21
-24.9425
  0
LINE
  8
0
 10
-36.1792
 20
-24.9425
 11
-36.1219
 21
-24.5807
  0
LINE
  8
0
 10
-36.1219
 20
-24.5807
 11
-36.0271
 21
-24.2268
  0
LINE
  8
0
 10
-36.0271
 20
-24.2268
 11
-35.8958
 21
-23.8848
  0
LINE
  8
0
 10
-35.8958
 20
-23.8848
 11
-35.7295
 21
-23.5583
  0
LINE
  8
0
 10
-35.7295
 20
-23.5583
 11
-35.53
 21
-23.2511
  0
LINE
  8
0
 10
-35.53
 20
-23.2511
 11
-35.2994
 21
-22.9664
  0
LINE
  8
0
 10
-35.2994
 20
-22.9664
 11
-35.0404
 21
-22.7073
  0
LINE
  8
0
 10
-35.0404
 20
-22.7073
 11
-34.7556
 21
-22.4768
  0
LINE
  8
0
 10
-34.7556
 20
-22.4768
 11
-34.4484
 21
-22.2773
  0
LINE
  8
0
 10
-34.4484
 20
-22.2773
 11
-34.122
 21
-22.1109
  0
LINE
  8
0
 10
-34.122
 20
-22.1109
 11
-33.78
 21
-21.9796
  0
LINE
  8
0
 10
-33.78
 20
-21.9796
 11
-33.4261
 21
-21.8848
  0
LINE
  8
0
 10
-33.4261
 20
-21.8848
 11
-33.0642
 21
-21.8275
  0
LINE
  8
0
 10
-33.0642
 20
-21.8275
 11
-32.6984
 21
-21.8083
  0
LINE
  8
0
 10
-32.6984
 20
-21.8083
 11
-32.3326
 21
-21.8275
  0
LINE
  8
0
 10
-32.3326
 20
-21.8275
 11
-31.9707
 21
-21.8848
  0
LINE
  8
0
 10
-31.9707
 20
-21.8848
 11
-31.6168
 21
-21.9796
  0
LINE
  8
0
 10
-31.6168
 20
-21.9796
 11
-31.2748
 21
-22.1109
  0
LINE
  8
0
 10
-31.2748
 20
-22.1109
 11
-30.9484
 21
-22.2773
  0
LINE
  8
0
 10
-30.9484
 20
-22.2773
 11
-30.6411
 21
-22.4768
  0
LINE
  8
0
 10
-30.6411
 20
-22.4768
 11
-30.3564
 21
-22.7073
  0
LINE
  8
0
 10
-30.3564
 20
-22.7073
 11
-30.0974
 21
-22.9664
  0
LINE
  8
0
 10
-30.0974
 20
-22.9664
 11
-29.8668
 21
-23.2511
  0
LINE
  8
0
 10
-29.8668
 20
-23.2511
 11
-29.6673
 21
-23.5583
  0
LINE
  8
0
 10
-29.6673
 20
-23.5583
 11
-29.501
 21
-23.8848
  0
LINE
  8
0
 10
-29.501
 20
-23.8848
 11
-29.3697
 21
-24.2268
  0
LINE
  8
0
 10
-29.3697
 20
-24.2268
 11
-29.2749
 21
-24.5806
  0
LINE
  8
0
 10
-29.2749
 20
-24.5806
 11
-29.2176
 21
-24.9425
  0
LINE
  8
0
 10
-29.2176
 20
-24.9425
 11
-29.1984
 21
-25.3083
  0
LINE
  8
0
 10
-29.1984
 20
-25.3083
 11
-29.2176
 21
-25.6742
  0
LINE
  8
0
 10
-29.2176
 20
-25.6742
 11
-29.2749
 21
-26.036
  0
LINE
  8
0
 10
-29.2749
 20
-26.036
 11
-29.3697
 21
-26.3899
  0
LINE
  8
0
 10
-29.3697
 20
-26.3899
 11
-29.501
 21
-26.7319
  0
LINE
  8
0
 10
-29.501
 20
-26.7319
 11
-29.6673
 21
-27.0583
  0
LINE
  8
0
 10
-29.6673
 20
-27.0583
 11
-29.8668
 21
-27.3656
  0
LINE
  8
0
 10
-29.8668
 20
-27.3656
 11
-30.0974
 21
-27.6503
  0
LINE
  8
0
 10
-30.0974
 20
-27.6503
 11
-30.3564
 21
-27.9093
  0
LINE
  8
0
 10
-30.3564
 20
-27.9093
 11
-30.6411
 21
-28.1399
  0
LINE
  8
0
 10
-30.6411
 20
-28.1399
 11
-30.9484
 21
-28.3394
  0
LINE
  8
0
 10
-30.9484
 20
-28.3394
 11
-31.2748
 21
-28.5058
  0
LINE
  8
0
 10
-31.2748
 20
-28.5058
 11
-31.6168
 21
-28.637
  0
LINE
  8
0
 10
-31.6168
 20
-28.637
 11
-31.9707
 21
-28.7319
  0
LINE
  8
0
 10
-31.9707
 20
-28.7319
 11
-32.3326
 21
-28.7892
  0
LINE
  8
0
 10
-32.3326
 20
-28.7892
 11
-32.6984
 21
-28.8083
  0
LINE
  8
0
 10
-32.6984
 20
-28.8083
 11
-33.0643
 21
-28.7892
  0
LINE
  8
0
 10
-19.0642
 20
-28.7892
 11
-19.4261
 21
-28.7319
  0
LINE
  8
0
 10
-19.4261
 20
-28.7319
 11
-19.78
 21
-28.637
  0
LINE
  8
0
 10
-19.78
 20
-28.637
 11
-20.122
 21
-28.5058
  0
LINE
  8
0
 10
-20.122
 20
-28.5058
 11
-20.4484
 21
-28.3394
  0
LINE
  8
0
 10
-20.4484
 20
-28.3394
 11
-20.7556
 21
-28.1399
  0
LINE
  8
0
 10
-20.7556
 20
-28.1399
 11
-21.0404
 21
-27.9093
  0
LINE
  8
0
 10
-21.0404
 20
-27.9093
 11
-21.2994
 21
-27.6503
  0
LINE
  8
0
 10
-21.2994
 20
-27.6503
 11
-21.53
 21
-27.3656
  0
LINE
  8
0
 10
-21.53
 20
-27.3656
 11
-21.7295
 21
-27.0583
  0
LINE
  8
0
 10
-21.7295
 20
-27.0583
 11
-21.8958
 21
-26.7319
  0
LINE
  8
0
 10
-21.8958
 20
-26.7319
 11
-22.0271
 21
-26.3899
  0
LINE
  8
0
 10
-22.0271
 20
-26.3899
 11
-22.1219
 21
-26.036
  0
LINE
  8
0
 10
-22.1219
 20
-26.036
 11
-22.1792
 21
-25.6742
  0
LINE
  8
0
 10
-22.1792
 20
-25.6742
 11
-22.1984
 21
-25.3083
  0
LINE
  8
0
 10
-22.1984
 20
-25.3083
 11
-22.1792
 21
-24.9425
  0
LINE
  8
0
 10
-22.1792
 20
-24.9425
 11
-22.1219
 21
-24.5806
  0
LINE
  8
0
 10
-22.1219
 20
-24.5806
 11
-22.0271
 21
-24.2268
  0
LINE
  8
0
 10
-22.0271
 20
-24.2268
 11
-21.8958
 21
-23.8848
  0
LINE
  8
0
 10
-21.8958
 20
-23.8848
 11
-21.7295
 21
-23.5583
  0
LINE
  8
0
 10
-21.7295
 20
-23.5583
 11
-21.53
 21
-23.2511
  0
LINE
  8
0
 10
-21.53
 20
-23.2511
 11
-21.2994
 21
-22.9664
  0
LINE
  8
0
 10
-21.2994
 20
-22.9664
 11
-21.0404
 21
-22.7073
  0
LINE
  8
0
 10
-21.0404
 20
-22.7073
 11
-20.7556
 21
-22.4768
  0
LINE
  8
0
 10
-20.7556
 20
-22.4768
 11
-20.4484
 21
-22.2773
  0
LINE
  8
0
 10
-20.4484
 20
-22.2773
 11
-20.122
 21
-22.1109
  0
LINE
  8
0
 10
-20.122
 20
-22.1109
 11
-19.78
 21
-21.9796
  0
LINE
  8
0
 10
-19.78
 20
-21.9796
 11
-19.4261
 21
-21.8848
  0
LINE
  8
0
 10
-19.4261
 20
-21.8848
 11
-19.0642
 21
-21.8275
  0
LINE
  8
0
 10
-19.0642
 20
-21.8275
 11
-18.6984
 21
-21.8083
  0
LINE
  8
0
 10
-18.6984
 20
-21.8083
 11
-18.3325
 21
-21.8275
  0
LINE
  8
0
 10
-18.3325
 20
-21.8275
 11
-17.9707
 21
-21.8848
  0
LINE
  8
0
 10
-17.9707
 20
-21.8848
 11
-17.6168
 21
-21.9796
  0
LINE
  8
0
 10
-17.6168
 20
-21.9796
 11
-17.2748
 21
-22.1109
  0
LINE
  8
0
 10
-17.2748
 20
-22.1109
 11
-16.9484
 21
-22.2773
  0
LINE
  8
0
 10
-16.9484
 20
-22.2773
 11
-16.6412
 21
-22.4768
  0
LINE
  8
0
 10
-16.6412
 20
-22.4768
 11
-16.3564
 21
-22.7073
  0
LINE
  8
0
 10
-16.3564
 20
-22.7073
 11
-16.0974
 21
-22.9664
  0
LINE
  8
0
 10
-16.0974
 20
-22.9664
 11
-15.8668
 21
-23.2511
  0
LINE
  8
0
 10
-15.8668
 20
-23.2511
 11
-15.6673
 21
-23.5583
  0
LINE
  8
0
 10
-15.6673
 20
-23.5583
 11
-15.501
 21
-23.8848
  0
LINE
  8
0
 10
-15.501
 20
-23.8848
 11
-15.3697
 21
-24.2268
  0
LINE
  8
0
 10
-15.3697
 20
-24.2268
 11
-15.2749
 21
-24.5807
  0
LINE
  8
0
 10
-15.2749
 20
-24.5807
 11
-15.2176
 21
-24.9425
  0
LINE
  8
0
 10
-15.2176
 20
-24.9425
 11
-15.1984
 21
-25.3083
  0
LINE
  8
0
 10
-15.1984
 20
-25.3083
 11
-15.2176
 21
-25.6742
  0
LINE
  8
0
 10
-15.2176
 20
-25.6742
 11
-15.2749
 21
-26.036
  0
LINE
  8
0
 10
-15.2749
 20
-26.036
 11
-15.3697
 21
-26.3899
  0
LINE
  8
0
 10
-15.3697
 20
-26.3899
 11
-15.501
 21
-26.7319
  0
LINE
  8
0
 10
-15.501
 20
-26.7319
 11
-15.6673
 21
-27.0583
  0
LINE
  8
0
 10
-15.6673
 20
-27.0583
 11
-15.8668
 21
-27.3656
  0
LINE
  8
0
 10
-15.8668
 20
-27.3656
 11
-16.0974
 21
-27.6503
  0
LINE
  8
0
 10
-16.0974
 20
-27.6503
 11
-16.3564
 21
-27.9093
  0
LINE
  8
0
 10
-16.3564
 20
-27.9093
 11
-16.6411
 21
-28.1399
  0
LINE
  8
0
 10
-16.6411
 20
-28.1399
 11
-16.9484
 21
-28.3394
  0
LINE
  8
0
 10
-16.9484
 20
-28.3394
 11
-17.2748
 21
-28.5058
  0
LINE
  8
0
 10
-17.2748
 20
-28.5058
 11
-17.6168
 21
-28.637
  0
LINE
  8
0
 10
-17.6168
 20
-28.637
 11
-17.9707
 21
-28.7319
  0
LINE
  8
0
 10
-17.9707
 20
-28.7319
 11
-18.3326
 21
-28.7892
  0
LINE
  8
0
 10
-18.3326
 20
-28.7892
 11
-18.6984
 21
-28.8083
  0
LINE
  8
0
 10
-18.6984
 20
-28.8083
 11
-19.0642
 21
-28.7892
  0
LINE
  8
0
 10
-6.06424
 20
-28.7892
 11
-6.42609
 21
-28.7319
  0
LINE
  8
0
 10
-6.42609
 20
-28.7319
 11
-6.77995
 21
-28.6371
  0
LINE
  8
0
 10
-6.77995
 20
-28.6371
 11
-7.12198
 21
-28.5058
  0
LINE
  8
0
 10
-7.12198
 20
-28.5058
 11
-7.44839
 21
-28.3394
  0
LINE
  8
0
 10
-7.44839
 20
-28.3394
 11
-7.75565
 21
-28.1399
  0
LINE
  8
0
 10
-7.75565
 20
-28.1399
 11
-8.04036
 21
-27.9094
  0
LINE
  8
0
 10
-8.04036
 20
-27.9094
 11
-8.29939
 21
-27.6503
  0
LINE
  8
0
 10
-8.29939
 20
-27.6503
 11
-8.52995
 21
-27.3656
  0
LINE
  8
0
 10
-8.52995
 20
-27.3656
 11
-8.72948
 21
-27.0583
  0
LINE
  8
0
 10
-8.72948
 20
-27.0583
 11
-8.8958
 21
-26.7319
  0
LINE
  8
0
 10
-8.8958
 20
-26.7319
 11
-9.0271
 21
-26.3899
  0
LINE
  8
0
 10
-9.0271
 20
-26.3899
 11
-9.12192
 21
-26.036
  0
LINE
  8
0
 10
-9.12192
 20
-26.036
 11
-9.17923
 21
-25.6742
  0
LINE
  8
0
 10
-9.17923
 20
-25.6742
 11
-9.19839
 21
-25.3083
  0
LINE
  8
0
 10
-9.19839
 20
-25.3083
 11
-9.17923
 21
-24.9425
  0
LINE
  8
0
 10
-9.17923
 20
-24.9425
 11
-9.12192
 21
-24.5806
  0
LINE
  8
0
 10
-9.12192
 20
-24.5806
 11
-9.02708
 21
-24.2268
  0
LINE
  8
0
 10
-9.02708
 20
-24.2268
 11
-8.89581
 21
-23.8848
  0
LINE
  8
0
 10
-8.89581
 20
-23.8848
 11
-8.72949
 21
-23.5583
  0
LINE
  8
0
 10
-8.72949
 20
-23.5583
 11
-8.52995
 21
-23.2511
  0
LINE
  8
0
 10
-8.52995
 20
-23.2511
 11
-8.29939
 21
-22.9664
  0
LINE
  8
0
 10
-8.29939
 20
-22.9664
 11
-8.04034
 21
-22.7073
  0
LINE
  8
0
 10
-8.04034
 20
-22.7073
 11
-7.75565
 21
-22.4768
  0
LINE
  8
0
 10
-7.75565
 20
-22.4768
 11
-7.44839
 21
-22.2773
  0
LINE
  8
0
 10
-7.44839
 20
-22.2773
 11
-7.12198
 21
-22.1109
  0
LINE
  8
0
 10
-7.12198
 20
-22.1109
 11
-6.77995
 21
-21.9796
  0
LINE
  8
0
 10
-6.77995
 20
-21.9796
 11
-6.42609
 21
-21.8848
  0
LINE
  8
0
 10
-6.42609
 20
-21.8848
 11
-6.06425
 21
-21.8275
  0
LINE
  8
0
 10
-6.06425
 20
-21.8275
 11
-5.69839
 21
-21.8083
  0
LINE
  8
0
 10
-5.69839
 20
-21.8083
 11
-5.33255
 21
-21.8275
  0
LINE
  8
0
 10
-5.33255
 20
-21.8275
 11
-4.9707
 21
-21.8848
  0
LINE
  8
0
 10
-4.9707
 20
-21.8848
 11
-4.61684
 21
-21.9796
  0
LINE
  8
0
 10
-4.61684
 20
-21.9796
 11
-4.27483
 21
-22.1109
  0
LINE
  8
0
 10
-4.27483
 20
-22.1109
 11
-3.94839
 21
-22.2773
  0
LINE
  8
0
 10
-3.94839
 20
-22.2773
 11
-3.64114
 21
-22.4768
  0
LINE
  8
0
 10
-3.64114
 20
-22.4768
 11
-3.35645
 21
-22.7073
  0
LINE
  8
0
 10
-3.35645
 20
-22.7073
 11
-3.0974
 21
-22.9664
  0
LINE
  8
0
 10
-3.0974
 20
-22.9664
 11
-2.86684
 21
-23.2511
  0
LINE
  8
0
 10
-2.86684
 20
-23.2511
 11
-2.6673
 21
-23.5583
  0
LINE
  8
0
 10
-2.6673
 20
-23.5583
 11
-2.50099
 21
-23.8848
  0
LINE
  8
0
 10
-2.50099
 20
-23.8848
 11
-2.36971
 21
-24.2268
  0
LINE
  8
0
 10
-2.36971
 20
-24.2268
 11
-2.27489
 21
-24.5807
  0
LINE
  8
0
 10
-2.27489
 20
-24.5807
 11
-2.21756
 21
-24.9425
  0
LINE
  8
0
 10
-2.21756
 20
-24.9425
 11
-2.19841
 21
-25.3083
  0
LINE
  8
0
 10
-2.19841
 20
-25.3083
 11
-2.21756
 21
-25.6742
  0
LINE
  8
0
 10
-2.21756
 20
-25.6742
 11
-2.27487
 21
-26.036
  0
LINE
  8
0
 10
-2.27487
 20
-26.036
 11
-2.36971
 21
-26.3899
  0
LINE
  8
0
 10
-2.36971
 20
-26.3899
 11
-2.50099
 21
-26.7319
  0
LINE
  8
0
 10
-2.50099
 20
-26.7319
 11
-2.66731
 21
-27.0583
  0
LINE
  8
0
 10
-2.66731
 20
-27.0583
 11
-2.86684
 21
-27.3656
  0
LINE
  8
0
 10
-2.86684
 20
-27.3656
 11
-3.09738
 21
-27.6503
  0
LINE
  8
0
 10
-3.09738
 20
-27.6503
 11
-3.35645
 21
-27.9093
  0
LINE
  8
0
 10
-3.35645
 20
-27.9093
 11
-3.64114
 21
-28.1399
  0
LINE
  8
0
 10
-3.64114
 20
-28.1399
 11
-3.94839
 21
-28.3394
  0
LINE
  8
0
 10
-3.94839
 20
-28.3394
 11
-4.27483
 21
-28.5058
  0
LINE
  8
0
 10
-4.27483
 20
-28.5058
 11
-4.61684
 21
-28.637
  0
LINE
  8
0
 10
-4.61684
 20
-28.637
 11
-4.9707
 21
-28.7319
  0
LINE
  8
0
 10
-4.9707
 20
-28.7319
 11
-5.33255
 21
-28.7892
  0
LINE
  8
0
 10
-5.33255
 20
-28.7892
 11
-5.69839
 21
-28.8083
  0
LINE
  8
0
 10
-5.69839
 20
-28.8083
 11
-6.06424
 21
-28.7892
  0
LINE
  8
0
 10
-46.2594
 20
-50.3529
 11
-46.2594
 21
-32.1029
  0
LINE
  8
0
 10
-46.2594
 20
-32.1029
 11
-43.0844
 21
-32.1029
  0
LINE
  8
0
 10
-43.0844
 20
-32.1029
 11
-43.0844
 21
-50.3529
  0
LINE
  8
0
 10
-43.0844
 20
-50.3529
 11
-46.2594
 21
-50.3529
  0
LINE
  8
0
 10
-18.2153
 20
-41.4896
 11
-18.578
 21
-41.4386
  0
LINE
  8
0
 10
-18.578
 20
-41.4386
 11
-18.9335
 21
-41.35
  0
LINE
  8
0
 10
-18.9335
 20
-41.35
 11
-19.2778
 21
-41.2247
  0
LINE
  8
0
 10
-19.2778
 20
-41.2247
 11
-19.6071
 21
-41.0641
  0
LINE
  8
0
 10
-19.6071
 20
-41.0641
 11
-19.9177
 21
-40.8699
  0
LINE
  8
0
 10
-19.9177
 20
-40.8699
 11
-20.2064
 21
-40.6444
  0
LINE
  8
0
 10
-20.2064
 20
-40.6444
 11
-20.47
 21
-40.3899
  0
LINE
  8
0
 10
-20.47
 20
-40.3899
 11
-20.7054
 21
-40.1093
  0
LINE
  8
0
 10
-20.7054
 20
-40.1093
 11
-20.9103
 21
-39.8056
  0
LINE
  8
0
 10
-20.9103
 20
-39.8056
 11
-21.0823
 21
-39.4821
  0
LINE
  8
0
 10
-21.0823
 20
-39.4821
 11
-21.2195
 21
-39.1424
  0
LINE
  8
0
 10
-21.2195
 20
-39.1424
 11
-21.3205
 21
-38.7903
  0
LINE
  8
0
 10
-21.3205
 20
-38.7903
 11
-21.3841
 21
-38.4295
  0
LINE
  8
0
 10
-21.3841
 20
-38.4295
 11
-21.4097
 21
-38.064
  0
LINE
  8
0
 10
-21.4097
 20
-38.064
 11
-21.3969
 21
-37.6979
  0
LINE
  8
0
 10
-21.3969
 20
-37.6979
 11
-21.3459
 21
-37.3351
  0
LINE
  8
0
 10
-21.3459
 20
-37.3351
 11
-21.2573
 21
-36.9796
  0
LINE
  8
0
 10
-21.2573
 20
-36.9796
 11
-21.132
 21
-36.6354
  0
LINE
  8
0
 10
-21.132
 20
-36.6354
 11
-20.9714
 21
-36.3061
  0
LINE
  8
0
 10
-20.9714
 20
-36.3061
 11
-20.7773
 21
-35.9954
  0
LINE
  8
0
 10
-20.7773
 20
-35.9954
 11
-20.5517
 21
-35.7067
  0
LINE
  8
0
 10
-20.5517
 20
-35.7067
 11
-20.2972
 21
-35.4432
  0
LINE
  8
0
 10
-20.2972
 20
-35.4432
 11
-20.0166
 21
-35.2077
  0
LINE
  8
0
 10
-20.0166
 20
-35.2077
 11
-19.7129
 21
-35.0028
  0
LINE
  8
0
 10
-19.7129
 20
-35.0028
 11
-19.3894
 21
-34.8308
  0
LINE
  8
0
 10
-19.3894
 20
-34.8308
 11
-19.0497
 21
-34.6936
  0
LINE
  8
0
 10
-19.0497
 20
-34.6936
 11
-18.6976
 21
-34.5926
  0
LINE
  8
0
 10
-18.6976
 20
-34.5926
 11
-18.3368
 21
-34.529
  0
LINE
  8
0
 10
-18.3368
 20
-34.529
 11
-17.9713
 21
-34.5035
  0
LINE
  8
0
 10
-17.9713
 20
-34.5035
 11
-17.6052
 21
-34.5162
  0
LINE
  8
0
 10
-17.6052
 20
-34.5162
 11
-17.2424
 21
-34.5672
  0
LINE
  8
0
 10
-17.2424
 20
-34.5672
 11
-16.8869
 21
-34.6559
  0
LINE
  8
0
 10
-16.8869
 20
-34.6559
 11
-16.5427
 21
-34.7811
  0
LINE
  8
0
 10
-16.5427
 20
-34.7811
 11
-16.2134
 21
-34.9418
  0
LINE
  8
0
 10
-16.2134
 20
-34.9418
 11
-15.9027
 21
-35.1359
  0
LINE
  8
0
 10
-15.9027
 20
-35.1359
 11
-15.614
 21
-35.3615
  0
LINE
  8
0
 10
-15.614
 20
-35.3615
 11
-15.3505
 21
-35.6159
  0
LINE
  8
0
 10
-15.3505
 20
-35.6159
 11
-15.115
 21
-35.8966
  0
LINE
  8
0
 10
-15.115
 20
-35.8966
 11
-14.9101
 21
-36.2003
  0
LINE
  8
0
 10
-14.9101
 20
-36.2003
 11
-14.7381
 21
-36.5238
  0
LINE
  8
0
 10
-14.7381
 20
-36.5238
 11
-14.6009
 21
-36.8634
  0
LINE
  8
0
 10
-14.6009
 20
-36.8634
 11
-14.4999
 21
-37.2156
  0
LINE
  8
0
 10
-14.4999
 20
-37.2156
 11
-14.4363
 21
-37.5764
  0
LINE
  8
0
 10
-14.4363
 20
-37.5764
 11
-14.4108
 21
-37.9418
  0
LINE
  8
0
 10
-14.4108
 20
-37.9418
 11
-14.4235
 21
-38.308
  0
LINE
  8
0
 10
-14.4235
 20
-38.308
 11
-14.4745
 21
-38.6707
  0
LINE
  8
0
 10
-14.4745
 20
-38.6707
 11
-14.5632
 21
-39.0262
  0
LINE
  8
0
 10
-14.5632
 20
-39.0262
 11
-14.6884
 21
-39.3705
  0
LINE
  8
0
 10
-14.6884
 20
-39.3705
 11
-14.8491
 21
-39.6998
  0
LINE
  8
0
 10
-14.8491
 20
-39.6998
 11
-15.0432
 21
-40.0104
  0
LINE
  8
0
 10
-15.0432
 20
-40.0104
 11
-15.2687
 21
-40.2991
  0
LINE
  8
0
 10
-15.2687
 20
-40.2991
 11
-15.5232
 21
-40.5627
  0
LINE
  8
0
 10
-15.5232
 20
-40.5627
 11
-15.8039
 21
-40.7981
  0
LINE
  8
0
 10
-15.8039
 20
-40.7981
 11
-16.1076
 21
-41.003
  0
LINE
  8
0
 10
-16.1076
 20
-41.003
 11
-16.4311
 21
-41.175
  0
LINE
  8
0
 10
-16.4311
 20
-41.175
 11
-16.7707
 21
-41.3122
  0
LINE
  8
0
 10
-16.7707
 20
-41.3122
 11
-17.1229
 21
-41.4132
  0
LINE
  8
0
 10
-17.1229
 20
-41.4132
 11
-17.4837
 21
-41.4768
  0
LINE
  8
0
 10
-17.4837
 20
-41.4768
 11
-17.8492
 21
-41.5024
  0
LINE
  8
0
 10
-17.8492
 20
-41.5024
 11
-18.2153
 21
-41.4896
  0
LINE
  8
0
 10
-28.8133
 20
-47.2081
 11
6.18666
 21
-47.2081
  0
LINE
  8
0
 10
6.18666
 20
-47.2081
 11
6.18665
 21
-50.3831
  0
LINE
  8
0
 10
6.18665
 20
-50.3831
 11
-28.8133
 21
-50.3831
  0
LINE
  8
0
 10
-28.8133
 20
-50.3831
 11
-28.8133
 21
-47.2081
  0
LINE
  8
0
 10
174.382
 20
-57.0493
 11
175.907
 21
-56.683
  0
LINE
  8
0
 10
175.907
 20
-56.683
 11
177.357
 21
-56.0825
  0
LINE
  8
0
 10
177.357
 20
-56.0825
 11
178.695
 21
-55.2626
  0
LINE
  8
0
 10
178.695
 20
-55.2626
 11
179.888
 21
-54.2435
  0
LINE
  8
0
 10
179.888
 20
-54.2435
 11
180.907
 21
-53.0503
  0
LINE
  8
0
 10
180.907
 20
-53.0503
 11
181.727
 21
-51.7123
  0
LINE
  8
0
 10
181.727
 20
-51.7123
 11
182.328
 21
-50.2626
  0
LINE
  8
0
 10
182.328
 20
-50.2626
 11
182.694
 21
-48.7368
  0
LINE
  8
0
 10
182.694
 20
-48.7368
 11
182.817
 21
-47.1724
  0
LINE
  8
0
 10
182.817
 20
-47.1724
 11
182.817
 21
-43.9126
  0
LINE
  8
0
 10
182.817
 20
-43.9126
 11
162.254
 21
52.8275
  0
LINE
  8
0
 10
162.254
 20
52.8275
 11
62.8172
 21
52.8276
  0
LINE
  8
0
 10
62.8172
 20
52.8276
 11
61.2529
 21
52.7044
  0
LINE
  8
0
 10
61.2529
 20
52.7044
 11
59.727
 21
52.3381
  0
LINE
  8
0
 10
59.727
 20
52.3381
 11
58.2773
 21
51.7376
  0
LINE
  8
0
 10
58.2773
 20
51.7376
 11
56.9393
 21
50.9177
  0
LINE
  8
0
 10
56.9393
 20
50.9177
 11
55.7461
 21
49.8986
  0
LINE
  8
0
 10
55.7461
 20
49.8986
 11
54.727
 21
48.7054
  0
LINE
  8
0
 10
54.727
 20
48.7054
 11
53.9071
 21
47.3675
  0
LINE
  8
0
 10
53.9071
 20
47.3675
 11
53.3066
 21
45.9177
  0
LINE
  8
0
 10
53.3066
 20
45.9177
 11
52.9403
 21
44.3919
  0
LINE
  8
0
 10
52.9403
 20
44.3919
 11
52.8172
 21
42.8275
  0
LINE
  8
0
 10
52.8172
 20
42.8275
 11
52.8172
 21
-47.1724
  0
LINE
  8
0
 10
52.8172
 20
-47.1724
 11
52.9403
 21
-48.7368
  0
LINE
  8
0
 10
52.9403
 20
-48.7368
 11
53.3066
 21
-50.2626
  0
LINE
  8
0
 10
53.3066
 20
-50.2626
 11
53.9071
 21
-51.7123
  0
LINE
  8
0
 10
53.9071
 20
-51.7123
 11
54.727
 21
-53.0503
  0
LINE
  8
0
 10
54.727
 20
-53.0503
 11
55.7461
 21
-54.2435
  0
LINE
  8
0
 10
55.7461
 20
-54.2435
 11
56.9393
 21
-55.2626
  0
LINE
  8
0
 10
56.9393
 20
-55.2626
 11
58.2773
 21
-56.0825
  0
LINE
  8
0
 10
58.2773
 20
-56.0825
 11
59.727
 21
-56.683
  0
LINE
  8
0
 10
59.727
 20
-56.683
 11
61.2528
 21
-57.0493
  0
LINE
  8
0
 10
61.2528
 20
-57.0493
 11
62.8172
 21
-57.1724
  0
LINE
  8
0
 10
62.8172
 20
-57.1724
 11
172.817
 21
-57.1724
  0
LINE
  8
0
 10
172.817
 20
-57.1724
 11
174.382
 21
-57.0493
  0
LINE
  8
0
 10
80.4261
 20
46.6065
 11
80.4261
 21
49.7815
  0
LINE
  8
0
 10
80.4261
 20
49.7815
 11
111.426
 21
49.7815
  0
LINE
  8
0
 10
111.426
 20
49.7815
 11
111.426
 21
46.6065
  0
LINE
  8
0
 10
111.426
 20
46.6065
 11
80.4261
 21
46.6065
  0
LINE
  8
0
 10
58.7406
 20
27.8971
 11
58.7406
 21
49.6471
  0
LINE
  8
0
 10
58.7406
 20
49.6471
 11
61.9156
 21
49.6471
  0
LINE
  8
0
 10
61.9156
 20
49.6471
 11
61.9156
 21
27.8971
  0
LINE
  8
0
 10
61.9156
 20
27.8971
 11
58.7406
 21
27.8971
  0
LINE
  8
0
 10
134.005
 20
44.2332
 11
133.61
 21
44.2992
  0
LINE
  8
0
 10
133.61
 20
44.2992
 11
133.231
 21
44.4262
  0
LINE
  8
0
 10
133.231
 20
44.4262
 11
132.876
 21
44.611
  0
LINE
  8
0
 10
132.876
 20
44.611
 11
132.554
 21
44.849
  0
LINE
  8
0
 10
132.554
 20
44.849
 11
132.274
 21
45.1344
  0
LINE
  8
0
 10
132.274
 20
45.1344
 11
132.042
 21
45.4602
  0
LINE
  8
0
 10
132.042
 20
45.4602
 11
131.863
 21
45.8183
  0
LINE
  8
0
 10
131.863
 20
45.8183
 11
131.743
 21
46.1999
  0
LINE
  8
0
 10
131.743
 20
46.1999
 11
131.684
 21
46.5956
  0
LINE
  8
0
 10
131.684
 20
46.5956
 11
131.687
 21
46.9958
  0
LINE
  8
0
 10
131.687
 20
46.9958
 11
131.753
 21
47.3904
  0
LINE
  8
0
 10
131.753
 20
47.3904
 11
131.88
 21
47.7699
  0
LINE
  8
0
 10
131.88
 20
47.7699
 11
132.065
 21
48.1248
  0
LINE
  8
0
 10
132.065
 20
48.1248
 11
132.303
 21
48.4465
  0
LINE
  8
0
 10
132.303
 20
48.4465
 11
132.588
 21
48.7269
  0
LINE
  8
0
 10
132.588
 20
48.7269
 11
132.914
 21
48.9593
  0
LINE
  8
0
 10
132.914
 20
48.9593
 11
133.272
 21
49.1378
  0
LINE
  8
0
 10
133.272
 20
49.1378
 11
133.654
 21
49.2581
  0
LINE
  8
0
 10
133.654
 20
49.2581
 11
134.049
 21
49.3173
  0
LINE
  8
0
 10
134.049
 20
49.3173
 11
134.45
 21
49.3138
  0
LINE
  8
0
 10
134.45
 20
49.3138
 11
134.844
 21
49.2478
  0
LINE
  8
0
 10
134.844
 20
49.2478
 11
135.224
 21
49.1208
  0
LINE
  8
0
 10
135.224
 20
49.1208
 11
135.579
 21
48.936
  0
LINE
  8
0
 10
135.579
 20
48.936
 11
135.9
 21
48.698
  0
LINE
  8
0
 10
135.9
 20
48.698
 11
136.181
 21
48.4126
  0
LINE
  8
0
 10
136.181
 20
48.4126
 11
136.413
 21
48.0869
  0
LINE
  8
0
 10
136.413
 20
48.0869
 11
136.592
 21
47.7287
  0
LINE
  8
0
 10
136.592
 20
47.7287
 11
136.712
 21
47.3471
  0
LINE
  8
0
 10
136.712
 20
47.3471
 11
136.771
 21
46.9514
  0
LINE
  8
0
 10
136.771
 20
46.9514
 11
136.768
 21
46.5513
  0
LINE
  8
0
 10
136.768
 20
46.5513
 11
136.702
 21
46.1566
  0
LINE
  8
0
 10
136.702
 20
46.1566
 11
136.575
 21
45.7771
  0
LINE
  8
0
 10
136.575
 20
45.7771
 11
136.39
 21
45.4222
  0
LINE
  8
0
 10
136.39
 20
45.4222
 11
136.152
 21
45.1006
  0
LINE
  8
0
 10
136.152
 20
45.1006
 11
135.866
 21
44.8201
  0
LINE
  8
0
 10
135.866
 20
44.8201
 11
135.541
 21
44.5877
  0
LINE
  8
0
 10
135.541
 20
44.5877
 11
135.183
 21
44.4092
  0
LINE
  8
0
 10
135.183
 20
44.4092
 11
134.801
 21
44.2889
  0
LINE
  8
0
 10
134.801
 20
44.2889
 11
134.405
 21
44.2297
  0
LINE
  8
0
 10
134.405
 20
44.2297
 11
134.005
 21
44.2332
  0
LINE
  8
0
 10
153.369
 20
40.7862
 11
153.021
 21
40.8445
  0
LINE
  8
0
 10
153.021
 20
40.8445
 11
152.686
 21
40.9565
  0
LINE
  8
0
 10
152.686
 20
40.9565
 11
152.373
 21
41.1196
  0
LINE
  8
0
 10
152.373
 20
41.1196
 11
152.089
 21
41.3296
  0
LINE
  8
0
 10
152.089
 20
41.3296
 11
151.842
 21
41.5814
  0
LINE
  8
0
 10
151.842
 20
41.5814
 11
151.637
 21
41.8688
  0
LINE
  8
0
 10
151.637
 20
41.8688
 11
151.479
 21
42.1848
  0
LINE
  8
0
 10
151.479
 20
42.1848
 11
151.373
 21
42.5215
  0
LINE
  8
0
 10
151.373
 20
42.5215
 11
151.321
 21
42.8707
  0
LINE
  8
0
 10
151.321
 20
42.8707
 11
151.324
 21
43.2238
  0
LINE
  8
0
 10
151.324
 20
43.2238
 11
151.382
 21
43.572
  0
LINE
  8
0
 10
151.382
 20
43.572
 11
151.494
 21
43.9068
  0
LINE
  8
0
 10
151.494
 20
43.9068
 11
151.657
 21
44.22
  0
LINE
  8
0
 10
151.657
 20
44.22
 11
151.867
 21
44.5038
  0
LINE
  8
0
 10
151.867
 20
44.5038
 11
152.119
 21
44.7513
  0
LINE
  8
0
 10
152.119
 20
44.7513
 11
152.407
 21
44.9563
  0
LINE
  8
0
 10
152.407
 20
44.9563
 11
152.723
 21
45.1138
  0
LINE
  8
0
 10
152.723
 20
45.1138
 11
153.059
 21
45.22
  0
LINE
  8
0
 10
153.059
 20
45.22
 11
153.409
 21
45.2722
  0
LINE
  8
0
 10
153.409
 20
45.2722
 11
153.762
 21
45.2691
  0
LINE
  8
0
 10
153.762
 20
45.2691
 11
154.11
 21
45.2108
  0
LINE
  8
0
 10
154.11
 20
45.2108
 11
154.445
 21
45.0988
  0
LINE
  8
0
 10
154.445
 20
45.0988
 11
154.758
 21
44.9358
  0
LINE
  8
0
 10
154.758
 20
44.9358
 11
155.042
 21
44.7258
  0
LINE
  8
0
 10
155.042
 20
44.7258
 11
155.289
 21
44.4739
  0
LINE
  8
0
 10
155.289
 20
44.4739
 11
155.494
 21
44.1865
  0
LINE
  8
0
 10
155.494
 20
44.1865
 11
155.652
 21
43.8705
  0
LINE
  8
0
 10
155.652
 20
43.8705
 11
155.758
 21
43.5338
  0
LINE
  8
0
 10
155.758
 20
43.5338
 11
155.81
 21
43.1846
  0
LINE
  8
0
 10
155.81
 20
43.1846
 11
155.807
 21
42.8316
  0
LINE
  8
0
 10
155.807
 20
42.8316
 11
155.749
 21
42.4833
  0
LINE
  8
0
 10
155.749
 20
42.4833
 11
155.637
 21
42.1485
  0
LINE
  8
0
 10
155.637
 20
42.1485
 11
155.474
 21
41.8353
  0
LINE
  8
0
 10
155.474
 20
41.8353
 11
155.264
 21
41.5515
  0
LINE
  8
0
 10
155.264
 20
41.5515
 11
155.012
 21
41.3041
  0
LINE
  8
0
 10
155.012
 20
41.3041
 11
154.724
 21
41.099
  0
LINE
  8
0
 10
154.724
 20
41.099
 11
154.408
 21
40.9415
  0
LINE
  8
0
 10
154.408
 20
40.9415
 11
154.072
 21
40.8353
  0
LINE
  8
0
 10
154.072
 20
40.8353
 11
153.723
 21
40.7831
  0
LINE
  8
0
 10
153.723
 20
40.7831
 11
153.369
 21
40.7862
  0
LINE
  8
0
 10
93.3326
 20
34.1098
 11
92.9844
 21
34.168
  0
LINE
  8
0
 10
92.9844
 20
34.168
 11
92.6496
 21
34.2801
  0
LINE
  8
0
 10
92.6496
 20
34.2801
 11
92.3364
 21
34.4431
  0
LINE
  8
0
 10
92.3364
 20
34.4431
 11
92.0526
 21
34.6531
  0
LINE
  8
0
 10
92.0526
 20
34.6531
 11
91.8051
 21
34.9049
  0
LINE
  8
0
 10
91.8051
 20
34.9049
 11
91.6001
 21
35.1924
  0
LINE
  8
0
 10
91.6001
 20
35.1924
 11
91.4426
 21
35.5083
  0
LINE
  8
0
 10
91.4426
 20
35.5083
 11
91.3364
 21
35.8451
  0
LINE
  8
0
 10
91.3364
 20
35.8451
 11
91.2842
 21
36.1942
  0
LINE
  8
0
 10
91.2842
 20
36.1942
 11
91.2873
 21
36.5473
  0
LINE
  8
0
 10
91.2873
 20
36.5473
 11
91.3456
 21
36.8955
  0
LINE
  8
0
 10
91.3456
 20
36.8955
 11
91.4576
 21
37.2303
  0
LINE
  8
0
 10
91.4576
 20
37.2303
 11
91.6206
 21
37.5435
  0
LINE
  8
0
 10
91.6206
 20
37.5435
 11
91.8307
 21
37.8273
  0
LINE
  8
0
 10
91.8307
 20
37.8273
 11
92.0825
 21
38.0748
  0
LINE
  8
0
 10
92.0825
 20
38.0748
 11
92.3699
 21
38.2798
  0
LINE
  8
0
 10
92.3699
 20
38.2798
 11
92.6859
 21
38.4374
  0
LINE
  8
0
 10
92.6859
 20
38.4374
 11
93.0226
 21
38.5435
  0
LINE
  8
0
 10
93.0226
 20
38.5435
 11
93.3718
 21
38.5957
  0
LINE
  8
0
 10
93.3718
 20
38.5957
 11
93.7249
 21
38.5926
  0
LINE
  8
0
 10
93.7249
 20
38.5926
 11
94.0731
 21
38.5344
  0
LINE
  8
0
 10
94.0731
 20
38.5344
 11
94.4079
 21
38.4223
  0
LINE
  8
0
 10
94.4079
 20
38.4223
 11
94.7211
 21
38.2593
  0
LINE
  8
0
 10
94.7211
 20
38.2593
 11
95.0049
 21
38.0493
  0
LINE
  8
0
 10
95.0049
 20
38.0493
 11
95.2523
 21
37.7975
  0
LINE
  8
0
 10
95.2523
 20
37.7975
 11
95.4574
 21
37.51
  0
LINE
  8
0
 10
95.4574
 20
37.51
 11
95.6149
 21
37.1941
  0
LINE
  8
0
 10
95.6149
 20
37.1941
 11
95.7211
 21
36.8573
  0
LINE
  8
0
 10
95.7211
 20
36.8573
 11
95.7733
 21
36.5081
  0
LINE
  8
0
 10
95.7733
 20
36.5081
 11
95.7702
 21
36.1551
  0
LINE
  8
0
 10
95.7702
 20
36.1551
 11
95.7119
 21
35.8069
  0
LINE
  8
0
 10
95.7119
 20
35.8069
 11
95.5999
 21
35.472
  0
LINE
  8
0
 10
95.5999
 20
35.472
 11
95.4369
 21
35.1589
  0
LINE
  8
0
 10
95.4369
 20
35.1589
 11
95.2269
 21
34.8751
  0
LINE
  8
0
 10
95.2269
 20
34.8751
 11
94.975
 21
34.6276
  0
LINE
  8
0
 10
94.975
 20
34.6276
 11
94.6876
 21
34.4226
  0
LINE
  8
0
 10
94.6876
 20
34.4226
 11
94.3716
 21
34.265
  0
LINE
  8
0
 10
94.3716
 20
34.265
 11
94.0349
 21
34.1589
  0
LINE
  8
0
 10
94.0349
 20
34.1589
 11
93.6857
 21
34.1067
  0
LINE
  8
0
 10
93.6857
 20
34.1067
 11
93.3326
 21
34.1098
  0
LINE
  8
0
 10
154.449
 20
13.0439
 11
152.755
 21
13.3275
  0
LINE
  8
0
 10
152.755
 20
13.3275
 11
151.125
 21
13.8727
  0
LINE
  8
0
 10
151.125
 20
13.8727
 11
149.601
 21
14.6661
  0
LINE
  8
0
 10
149.601
 20
14.6661
 11
148.22
 21
15.6882
  0
LINE
  8
0
 10
148.22
 20
15.6882
 11
147.016
 21
16.9137
  0
LINE
  8
0
 10
147.016
 20
16.9137
 11
146.018
 21
18.3126
  0
LINE
  8
0
 10
146.018
 20
18.3126
 11
145.251
 21
19.8503
  0
LINE
  8
0
 10
145.251
 20
19.8503
 11
144.734
 21
21.489
  0
LINE
  8
0
 10
144.734
 20
21.489
 11
144.48
 21
23.1884
  0
LINE
  8
0
 10
144.48
 20
23.1884
 11
144.495
 21
24.9066
  0
LINE
  8
0
 10
144.495
 20
24.9066
 11
144.779
 21
26.6013
  0
LINE
  8
0
 10
144.779
 20
26.6013
 11
145.324
 21
28.2308
  0
LINE
  8
0
 10
145.324
 20
28.2308
 11
146.118
 21
29.7549
  0
LINE
  8
0
 10
146.118
 20
29.7549
 11
147.14
 21
31.1361
  0
LINE
  8
0
 10
147.14
 20
31.1361
 11
148.365
 21
32.3404
  0
LINE
  8
0
 10
148.365
 20
32.3404
 11
149.764
 21
33.3382
  0
LINE
  8
0
 10
149.764
 20
33.3382
 11
151.302
 21
34.1049
  0
LINE
  8
0
 10
151.302
 20
34.1049
 11
152.941
 21
34.6216
  0
LINE
  8
0
 10
152.941
 20
34.6216
 11
154.64
 21
34.8756
  0
LINE
  8
0
 10
154.64
 20
34.8756
 11
156.358
 21
34.8606
  0
LINE
  8
0
 10
156.358
 20
34.8606
 11
158.053
 21
34.577
  0
LINE
  8
0
 10
158.053
 20
34.577
 11
159.682
 21
34.0318
  0
LINE
  8
0
 10
159.682
 20
34.0318
 11
161.206
 21
33.2384
  0
LINE
  8
0
 10
161.206
 20
33.2384
 11
162.588
 21
32.2163
  0
LINE
  8
0
 10
162.588
 20
32.2163
 11
163.792
 21
30.9908
  0
LINE
  8
0
 10
163.792
 20
30.9908
 11
164.79
 21
29.5919
  0
LINE
  8
0
 10
164.79
 20
29.5919
 11
165.556
 21
28.0542
  0
LINE
  8
0
 10
165.556
 20
28.0542
 11
166.073
 21
26.4155
  0
LINE
  8
0
 10
166.073
 20
26.4155
 11
166.327
 21
24.7161
  0
LINE
  8
0
 10
166.327
 20
24.7161
 11
166.312
 21
22.9979
  0
LINE
  8
0
 10
166.312
 20
22.9979
 11
166.028
 21
21.3032
  0
LINE
  8
0
 10
166.028
 20
21.3032
 11
165.483
 21
19.6738
  0
LINE
  8
0
 10
165.483
 20
19.6738
 11
164.69
 21
18.1496
  0
LINE
  8
0
 10
164.69
 20
18.1496
 11
163.668
 21
16.7684
  0
LINE
  8
0
 10
163.668
 20
16.7684
 11
162.442
 21
15.5641
  0
LINE
  8
0
 10
162.442
 20
15.5641
 11
161.043
 21
14.5663
  0
LINE
  8
0
 10
161.043
 20
14.5663
 11
159.506
 21
13.7996
  0
LINE
  8
0
 10
159.506
 20
13.7996
 11
157.867
 21
13.2829
  0
LINE
  8
0
 10
157.867
 20
13.2829
 11
156.168
 21
13.0289
  0
LINE
  8
0
 10
156.168
 20
13.0289
 11
154.449
 21
13.0439
  0
LINE
  8
0
 10
99.2971
 20
6.38835
 11
99.2971
 21
31.3884
  0
LINE
  8
0
 10
99.2971
 20
31.3884
 11
114.297
 21
31.3884
  0
LINE
  8
0
 10
114.297
 20
31.3884
 11
114.297
 21
6.38835
  0
LINE
  8
0
 10
114.297
 20
6.38835
 11
99.2971
 21
6.38835
  0
LINE
  8
0
 10
68.063
 20
25.6846
 11
67.9286
 21
25.7059
  0
LINE
  8
0
 10
67.9286
 20
25.7059
 11
67.7972
 21
25.7411
  0
LINE
  8
0
 10
67.7972
 20
25.7411
 11
67.6701
 21
25.7899
  0
LINE
  8
0
 10
67.6701
 20
25.7899
 11
67.5489
 21
25.8516
  0
LINE
  8
0
 10
67.5489
 20
25.8516
 11
67.4348
 21
25.9258
  0
LINE
  8
0
 10
67.4348
 20
25.9258
 11
67.329
 21
26.0114
  0
LINE
  8
0
 10
67.329
 20
26.0114
 11
67.2328
 21
26.1076
  0
LINE
  8
0
 10
67.2328
 20
26.1076
 11
67.1472
 21
26.2134
  0
LINE
  8
0
 10
67.1472
 20
26.2134
 11
67.0731
 21
26.3275
  0
LINE
  8
0
 10
67.0731
 20
26.3275
 11
67.0113
 21
26.4487
  0
LINE
  8
0
 10
67.0113
 20
26.4487
 11
66.9625
 21
26.5758
  0
LINE
  8
0
 10
66.9625
 20
26.5758
 11
66.9273
 21
26.7072
  0
LINE
  8
0
 10
66.9273
 20
26.7072
 11
66.906
 21
26.8416
  0
LINE
  8
0
 10
66.906
 20
26.8416
 11
66.8989
 21
26.9775
  0
LINE
  8
0
 10
66.8989
 20
26.9775
 11
66.906
 21
27.1134
  0
LINE
  8
0
 10
66.906
 20
27.1134
 11
66.9273
 21
27.2478
  0
LINE
  8
0
 10
66.9273
 20
27.2478
 11
66.9625
 21
27.3792
  0
LINE
  8
0
 10
66.9625
 20
27.3792
 11
67.0113
 21
27.5062
  0
LINE
  8
0
 10
67.0113
 20
27.5062
 11
67.0731
 21
27.6275
  0
LINE
  8
0
 10
67.0731
 20
27.6275
 11
67.1472
 21
27.7416
  0
LINE
  8
0
 10
67.1472
 20
27.7416
 11
67.2328
 21
27.8474
  0
LINE
  8
0
 10
67.2328
 20
27.8474
 11
67.329
 21
27.9436
  0
LINE
  8
0
 10
67.329
 20
27.9436
 11
67.4348
 21
28.0292
  0
LINE
  8
0
 10
67.4348
 20
28.0292
 11
67.5489
 21
28.1033
  0
LINE
  8
0
 10
67.5489
 20
28.1033
 11
67.6701
 21
28.1651
  0
LINE
  8
0
 10
67.6701
 20
28.1651
 11
67.7972
 21
28.2139
  0
LINE
  8
0
 10
67.7972
 20
28.2139
 11
67.9286
 21
28.2491
  0
LINE
  8
0
 10
67.9286
 20
28.2491
 11
68.063
 21
28.2704
  0
LINE
  8
0
 10
68.063
 20
28.2704
 11
68.1989
 21
28.2775
  0
LINE
  8
0
 10
68.1989
 20
28.2775
 11
68.3348
 21
28.2704
  0
LINE
  8
0
 10
68.3348
 20
28.2704
 11
68.4692
 21
28.2491
  0
LINE
  8
0
 10
68.4692
 20
28.2491
 11
68.6006
 21
28.2139
  0
LINE
  8
0
 10
68.6006
 20
28.2139
 11
68.7276
 21
28.1651
  0
LINE
  8
0
 10
68.7276
 20
28.1651
 11
68.8489
 21
28.1033
  0
LINE
  8
0
 10
68.8489
 20
28.1033
 11
68.963
 21
28.0292
  0
LINE
  8
0
 10
68.963
 20
28.0292
 11
69.0688
 21
27.9436
  0
LINE
  8
0
 10
69.0688
 20
27.9436
 11
69.165
 21
27.8473
  0
LINE
  8
0
 10
69.165
 20
27.8473
 11
69.2506
 21
27.7416
  0
LINE
  8
0
 10
69.2506
 20
27.7416
 11
69.3247
 21
27.6275
  0
LINE
  8
0
 10
69.3247
 20
27.6275
 11
69.3865
 21
27.5062
  0
LINE
  8
0
 10
69.3865
 20
27.5062
 11
69.4353
 21
27.3792
  0
LINE
  8
0
 10
69.4353
 20
27.3792
 11
69.4705
 21
27.2478
  0
LINE
  8
0
 10
69.4705
 20
27.2478
 11
69.4918
 21
27.1134
  0
LINE
  8
0
 10
69.4918
 20
27.1134
 11
69.4989
 21
26.9775
  0
LINE
  8
0
 10
69.4989
 20
26.9775
 11
69.4918
 21
26.8416
  0
LINE
  8
0
 10
69.4918
 20
26.8416
 11
69.4705
 21
26.7072
  0
LINE
  8
0
 10
69.4705
 20
26.7072
 11
69.4353
 21
26.5758
  0
LINE
  8
0
 10
69.4353
 20
26.5758
 11
69.3865
 21
26.4487
  0
LINE
  8
0
 10
69.3865
 20
26.4487
 11
69.3247
 21
26.3275
  0
LINE
  8
0
 10
69.3247
 20
26.3275
 11
69.2506
 21
26.2133
  0
LINE
  8
0
 10
69.2506
 20
26.2133
 11
69.165
 21
26.1076
  0
LINE
  8
0
 10
69.165
 20
26.1076
 11
69.0688
 21
26.0114
  0
LINE
  8
0
 10
69.0688
 20
26.0114
 11
68.963
 21
25.9258
  0
LINE
  8
0
 10
68.963
 20
25.9258
 11
68.8489
 21
25.8516
  0
LINE
  8
0
 10
68.8489
 20
25.8516
 11
68.7276
 21
25.7899
  0
LINE
  8
0
 10
68.7276
 20
25.7899
 11
68.6006
 21
25.7411
  0
LINE
  8
0
 10
68.6006
 20
25.7411
 11
68.4692
 21
25.7059
  0
LINE
  8
0
 10
68.4692
 20
25.7059
 11
68.3348
 21
25.6846
  0
LINE
  8
0
 10
68.3348
 20
25.6846
 11
68.1989
 21
25.6775
  0
LINE
  8
0
 10
68.1989
 20
25.6775
 11
68.063
 21
25.6846
  0
LINE
  8
0
 10
121.003
 20
22.7579
 11
120.608
 21
22.8239
  0
LINE
  8
0
 10
120.608
 20
22.8239
 11
120.229
 21
22.9509
  0
LINE
  8
0
 10
120.229
 20
22.9509
 11
119.874
 21
23.1357
  0
LINE
  8
0
 10
119.874
 20
23.1357
 11
119.552
 21
23.3737
  0
LINE
  8
0
 10
119.552
 20
23.3737
 11
119.272
 21
23.6591
  0
LINE
  8
0
 10
119.272
 20
23.6591
 11
119.039
 21
23.9849
  0
LINE
  8
0
 10
119.039
 20
23.9849
 11
118.861
 21
24.343
  0
LINE
  8
0
 10
118.861
 20
24.343
 11
118.74
 21
24.7246
  0
LINE
  8
0
 10
118.74
 20
24.7246
 11
118.681
 21
25.1203
  0
LINE
  8
0
 10
118.681
 20
25.1203
 11
118.685
 21
25.5204
  0
LINE
  8
0
 10
118.685
 20
25.5204
 11
118.751
 21
25.9151
  0
LINE
  8
0
 10
118.751
 20
25.9151
 11
118.878
 21
26.2946
  0
LINE
  8
0
 10
118.878
 20
26.2946
 11
119.062
 21
26.6495
  0
LINE
  8
0
 10
119.062
 20
26.6495
 11
119.3
 21
26.9712
  0
LINE
  8
0
 10
119.3
 20
26.9712
 11
119.586
 21
27.2516
  0
LINE
  8
0
 10
119.586
 20
27.2516
 11
119.912
 21
27.484
  0
LINE
  8
0
 10
119.912
 20
27.484
 11
120.27
 21
27.6625
  0
LINE
  8
0
 10
120.27
 20
27.6625
 11
120.651
 21
27.7828
  0
LINE
  8
0
 10
120.651
 20
27.7828
 11
121.047
 21
27.842
  0
LINE
  8
0
 10
121.047
 20
27.842
 11
121.447
 21
27.8385
  0
LINE
  8
0
 10
121.447
 20
27.8385
 11
121.842
 21
27.7725
  0
LINE
  8
0
 10
121.842
 20
27.7725
 11
122.221
 21
27.6455
  0
LINE
  8
0
 10
122.221
 20
27.6455
 11
122.576
 21
27.4607
  0
LINE
  8
0
 10
122.576
 20
27.4607
 11
122.898
 21
27.2227
  0
LINE
  8
0
 10
122.898
 20
27.2227
 11
123.178
 21
26.9373
  0
LINE
  8
0
 10
123.178
 20
26.9373
 11
123.411
 21
26.6115
  0
LINE
  8
0
 10
123.411
 20
26.6115
 11
123.589
 21
26.2534
  0
LINE
  8
0
 10
123.589
 20
26.2534
 11
123.71
 21
25.8718
  0
LINE
  8
0
 10
123.71
 20
25.8718
 11
123.769
 21
25.4761
  0
LINE
  8
0
 10
123.769
 20
25.4761
 11
123.765
 21
25.076
  0
LINE
  8
0
 10
123.765
 20
25.076
 11
123.699
 21
24.6813
  0
LINE
  8
0
 10
123.699
 20
24.6813
 11
123.572
 21
24.3018
  0
LINE
  8
0
 10
123.572
 20
24.3018
 11
123.387
 21
23.9469
  0
LINE
  8
0
 10
123.387
 20
23.9469
 11
123.149
 21
23.6252
  0
LINE
  8
0
 10
123.149
 20
23.6252
 11
122.864
 21
23.3448
  0
LINE
  8
0
 10
122.864
 20
23.3448
 11
122.538
 21
23.1124
  0
LINE
  8
0
 10
122.538
 20
23.1124
 11
122.18
 21
22.9339
  0
LINE
  8
0
 10
122.18
 20
22.9339
 11
121.799
 21
22.8136
  0
LINE
  8
0
 10
121.799
 20
22.8136
 11
121.403
 21
22.7544
  0
LINE
  8
0
 10
121.403
 20
22.7544
 11
121.003
 21
22.7579
  0
LINE
  8
0
 10
120.742
 20
8.32939
 11
120.347
 21
8.39543
  0
LINE
  8
0
 10
120.347
 20
8.39543
 11
119.968
 21
8.5224
  0
LINE
  8
0
 10
119.968
 20
8.5224
 11
119.613
 21
8.70717
  0
LINE
  8
0
 10
119.613
 20
8.70717
 11
119.291
 21
8.94519
  0
LINE
  8
0
 10
119.291
 20
8.94519
 11
119.011
 21
9.23058
  0
LINE
  8
0
 10
119.011
 20
9.23058
 11
118.778
 21
9.55635
  0
LINE
  8
0
 10
118.778
 20
9.55635
 11
118.6
 21
9.91444
  0
LINE
  8
0
 10
118.6
 20
9.91444
 11
118.479
 21
10.2961
  0
LINE
  8
0
 10
118.479
 20
10.2961
 11
118.42
 21
10.6918
  0
LINE
  8
0
 10
118.42
 20
10.6918
 11
118.424
 21
11.0919
  0
LINE
  8
0
 10
118.424
 20
11.0919
 11
118.49
 21
11.4866
  0
LINE
  8
0
 10
118.49
 20
11.4866
 11
118.617
 21
11.8661
  0
LINE
  8
0
 10
118.617
 20
11.8661
 11
118.801
 21
12.221
  0
LINE
  8
0
 10
118.801
 20
12.221
 11
119.039
 21
12.5426
  0
LINE
  8
0
 10
119.039
 20
12.5426
 11
119.325
 21
12.8231
  0
LINE
  8
0
 10
119.325
 20
12.8231
 11
119.651
 21
13.0555
  0
LINE
  8
0
 10
119.651
 20
13.0555
 11
120.009
 21
13.234
  0
LINE
  8
0
 10
120.009
 20
13.234
 11
120.39
 21
13.3543
  0
LINE
  8
0
 10
120.39
 20
13.3543
 11
120.786
 21
13.4135
  0
LINE
  8
0
 10
120.786
 20
13.4135
 11
121.186
 21
13.41
  0
LINE
  8
0
 10
121.186
 20
13.41
 11
121.581
 21
13.3439
  0
LINE
  8
0
 10
121.581
 20
13.3439
 11
121.96
 21
13.217
  0
LINE
  8
0
 10
121.96
 20
13.217
 11
122.315
 21
13.0322
  0
LINE
  8
0
 10
122.315
 20
13.0322
 11
122.637
 21
12.7942
  0
LINE
  8
0
 10
122.637
 20
12.7942
 11
122.917
 21
12.5088
  0
LINE
  8
0
 10
122.917
 20
12.5088
 11
123.15
 21
12.183
  0
LINE
  8
0
 10
123.15
 20
12.183
 11
123.328
 21
11.8249
  0
LINE
  8
0
 10
123.328
 20
11.8249
 11
123.449
 21
11.4433
  0
LINE
  8
0
 10
123.449
 20
11.4433
 11
123.508
 21
11.0476
  0
LINE
  8
0
 10
123.508
 20
11.0476
 11
123.504
 21
10.6474
  0
LINE
  8
0
 10
123.504
 20
10.6474
 11
123.438
 21
10.2528
  0
LINE
  8
0
 10
123.438
 20
10.2528
 11
123.311
 21
9.87334
  0
LINE
  8
0
 10
123.311
 20
9.87334
 11
123.127
 21
9.5184
  0
LINE
  8
0
 10
123.127
 20
9.5184
 11
122.888
 21
9.19673
  0
LINE
  8
0
 10
122.888
 20
9.19673
 11
122.603
 21
8.91628
  0
LINE
  8
0
 10
122.603
 20
8.91628
 11
122.277
 21
8.68391
  0
LINE
  8
0
 10
122.277
 20
8.68391
 11
121.919
 21
8.50537
  0
LINE
  8
0
 10
121.919
 20
8.50537
 11
121.538
 21
8.38506
  0
LINE
  8
0
 10
121.538
 20
8.38506
 11
121.142
 21
8.3259
  0
LINE
  8
0
 10
121.142
 20
8.3259
 11
120.742
 21
8.32939
  0
LINE
  8
0
 10
58.7406
 20
-12.1029
 11
58.7406
 21
7.89709
  0
LINE
  8
0
 10
58.7406
 20
7.89709
 11
61.9156
 21
7.89709
  0
LINE
  8
0
 10
61.9156
 20
7.89709
 11
61.9156
 21
-12.1029
  0
LINE
  8
0
 10
61.9156
 20
-12.1029
 11
58.7406
 21
-12.1029
  0
LINE
  8
0
 10
168.751
 20
-6.24445
 11
168.356
 21
-6.17842
  0
LINE
  8
0
 10
168.356
 20
-6.17842
 11
167.977
 21
-6.05145
  0
LINE
  8
0
 10
167.977
 20
-6.05145
 11
167.622
 21
-5.86668
  0
LINE
  8
0
 10
167.622
 20
-5.86668
 11
167.3
 21
-5.62866
  0
LINE
  8
0
 10
167.3
 20
-5.62866
 11
167.019
 21
-5.34326
  0
LINE
  8
0
 10
167.019
 20
-5.34326
 11
166.787
 21
-5.0175
  0
LINE
  8
0
 10
166.787
 20
-5.0175
 11
166.609
 21
-4.65939
  0
LINE
  8
0
 10
166.609
 20
-4.65939
 11
166.488
 21
-4.27779
  0
LINE
  8
0
 10
166.488
 20
-4.27779
 11
166.429
 21
-3.88205
  0
LINE
  8
0
 10
166.429
 20
-3.88205
 11
166.433
 21
-3.48192
  0
LINE
  8
0
 10
166.433
 20
-3.48192
 11
166.499
 21
-3.08727
  0
LINE
  8
0
 10
166.499
 20
-3.08727
 11
166.626
 21
-2.70779
  0
LINE
  8
0
 10
166.626
 20
-2.70779
 11
166.81
 21
-2.35286
  0
LINE
  8
0
 10
166.81
 20
-2.35286
 11
167.048
 21
-2.0312
  0
LINE
  8
0
 10
167.048
 20
-2.0312
 11
167.334
 21
-1.75073
  0
LINE
  8
0
 10
167.334
 20
-1.75073
 11
167.66
 21
-1.51839
  0
LINE
  8
0
 10
167.66
 20
-1.51839
 11
168.018
 21
-1.33983
  0
LINE
  8
0
 10
168.018
 20
-1.33983
 11
168.399
 21
-1.21951
  0
LINE
  8
0
 10
168.399
 20
-1.21951
 11
168.795
 21
-1.16037
  0
LINE
  8
0
 10
168.795
 20
-1.16037
 11
169.195
 21
-1.16386
  0
LINE
  8
0
 10
169.195
 20
-1.16386
 11
169.59
 21
-1.2299
  0
LINE
  8
0
 10
169.59
 20
-1.2299
 11
169.969
 21
-1.35687
  0
LINE
  8
0
 10
169.969
 20
-1.35687
 11
170.324
 21
-1.54164
  0
LINE
  8
0
 10
170.324
 20
-1.54164
 11
170.646
 21
-1.77965
  0
LINE
  8
0
 10
170.646
 20
-1.77965
 11
170.926
 21
-2.06505
  0
LINE
  8
0
 10
170.926
 20
-2.06505
 11
171.159
 21
-2.39082
  0
LINE
  8
0
 10
171.159
 20
-2.39082
 11
171.337
 21
-2.74892
  0
LINE
  8
0
 10
171.337
 20
-2.74892
 11
171.458
 21
-3.13054
  0
LINE
  8
0
 10
171.458
 20
-3.13054
 11
171.517
 21
-3.52628
  0
LINE
  8
0
 10
171.517
 20
-3.52628
 11
171.513
 21
-3.92639
  0
LINE
  8
0
 10
171.513
 20
-3.92639
 11
171.447
 21
-4.32106
  0
LINE
  8
0
 10
171.447
 20
-4.32106
 11
171.32
 21
-4.70052
  0
LINE
  8
0
 10
171.32
 20
-4.70052
 11
171.135
 21
-5.05545
  0
LINE
  8
0
 10
171.135
 20
-5.05545
 11
170.897
 21
-5.37711
  0
LINE
  8
0
 10
170.897
 20
-5.37711
 11
170.612
 21
-5.65758
  0
LINE
  8
0
 10
170.612
 20
-5.65758
 11
170.286
 21
-5.88994
  0
LINE
  8
0
 10
170.286
 20
-5.88994
 11
169.928
 21
-6.06848
  0
LINE
  8
0
 10
169.928
 20
-6.06848
 11
169.546
 21
-6.1888
  0
LINE
  8
0
 10
169.546
 20
-6.1888
 11
169.151
 21
-6.24796
  0
LINE
  8
0
 10
169.151
 20
-6.24796
 11
168.751
 21
-6.24445
  0
LINE
  8
0
 10
104.563
 20
-10.8154
 11
104.429
 21
-10.7941
  0
LINE
  8
0
 10
104.429
 20
-10.7941
 11
104.297
 21
-10.7589
  0
LINE
  8
0
 10
104.297
 20
-10.7589
 11
104.17
 21
-10.7101
  0
LINE
  8
0
 10
104.17
 20
-10.7101
 11
104.049
 21
-10.6483
  0
LINE
  8
0
 10
104.049
 20
-10.6483
 11
103.935
 21
-10.5742
  0
LINE
  8
0
 10
103.935
 20
-10.5742
 11
103.829
 21
-10.4886
  0
LINE
  8
0
 10
103.829
 20
-10.4886
 11
103.733
 21
-10.3924
  0
LINE
  8
0
 10
103.733
 20
-10.3924
 11
103.647
 21
-10.2866
  0
LINE
  8
0
 10
103.647
 20
-10.2866
 11
103.573
 21
-10.1725
  0
LINE
  8
0
 10
103.573
 20
-10.1725
 11
103.511
 21
-10.0513
  0
LINE
  8
0
 10
103.511
 20
-10.0513
 11
103.463
 21
-9.92421
  0
LINE
  8
0
 10
103.463
 20
-9.92421
 11
103.427
 21
-9.79279
  0
LINE
  8
0
 10
103.427
 20
-9.79279
 11
103.406
 21
-9.65839
  0
LINE
  8
0
 10
103.406
 20
-9.65839
 11
103.399
 21
-9.52249
  0
LINE
  8
0
 10
103.399
 20
-9.52249
 11
103.406
 21
-9.38661
  0
LINE
  8
0
 10
103.406
 20
-9.38661
 11
103.427
 21
-9.25221
  0
LINE
  8
0
 10
103.427
 20
-9.25221
 11
103.463
 21
-9.12077
  0
LINE
  8
0
 10
103.463
 20
-9.12077
 11
103.511
 21
-8.99373
  0
LINE
  8
0
 10
103.511
 20
-8.99373
 11
103.573
 21
-8.8725
  0
LINE
  8
0
 10
103.573
 20
-8.8725
 11
103.647
 21
-8.75838
  0
LINE
  8
0
 10
103.647
 20
-8.75838
 11
103.733
 21
-8.65263
  0
LINE
  8
0
 10
103.733
 20
-8.65263
 11
103.829
 21
-8.55641
  0
LINE
  8
0
 10
103.829
 20
-8.55641
 11
103.935
 21
-8.47078
  0
LINE
  8
0
 10
103.935
 20
-8.47078
 11
104.049
 21
-8.39667
  0
LINE
  8
0
 10
104.049
 20
-8.39667
 11
104.17
 21
-8.33488
  0
LINE
  8
0
 10
104.17
 20
-8.33488
 11
104.297
 21
-8.28612
  0
LINE
  8
0
 10
104.297
 20
-8.28612
 11
104.429
 21
-8.2509
  0
LINE
  8
0
 10
104.429
 20
-8.2509
 11
104.563
 21
-8.22961
  0
LINE
  8
0
 10
104.563
 20
-8.22961
 11
104.699
 21
-8.2225
  0
LINE
  8
0
 10
104.699
 20
-8.2225
 11
104.835
 21
-8.22961
  0
LINE
  8
0
 10
104.835
 20
-8.22961
 11
104.969
 21
-8.2509
  0
LINE
  8
0
 10
104.969
 20
-8.2509
 11
105.101
 21
-8.28612
  0
LINE
  8
0
 10
105.101
 20
-8.28612
 11
105.228
 21
-8.33488
  0
LINE
  8
0
 10
105.228
 20
-8.33488
 11
105.349
 21
-8.39667
  0
LINE
  8
0
 10
105.349
 20
-8.39667
 11
105.463
 21
-8.47078
  0
LINE
  8
0
 10
105.463
 20
-8.47078
 11
105.569
 21
-8.55641
  0
LINE
  8
0
 10
105.569
 20
-8.55641
 11
105.665
 21
-8.65263
  0
LINE
  8
0
 10
105.665
 20
-8.65263
 11
105.751
 21
-8.75838
  0
LINE
  8
0
 10
105.751
 20
-8.75838
 11
105.825
 21
-8.8725
  0
LINE
  8
0
 10
105.825
 20
-8.8725
 11
105.887
 21
-8.99374
  0
LINE
  8
0
 10
105.887
 20
-8.99374
 11
105.935
 21
-9.12076
  0
LINE
  8
0
 10
105.935
 20
-9.12076
 11
105.97
 21
-9.25221
  0
LINE
  8
0
 10
105.97
 20
-9.25221
 11
105.992
 21
-9.38661
  0
LINE
  8
0
 10
105.992
 20
-9.38661
 11
105.999
 21
-9.52249
  0
LINE
  8
0
 10
105.999
 20
-9.52249
 11
105.992
 21
-9.65837
  0
LINE
  8
0
 10
105.992
 20
-9.65837
 11
105.97
 21
-9.79279
  0
LINE
  8
0
 10
105.97
 20
-9.79279
 11
105.935
 21
-9.92421
  0
LINE
  8
0
 10
105.935
 20
-9.92421
 11
105.886
 21
-10.0513
  0
LINE
  8
0
 10
105.886
 20
-10.0513
 11
105.825
 21
-10.1725
  0
LINE
  8
0
 10
105.825
 20
-10.1725
 11
105.751
 21
-10.2866
  0
LINE
  8
0
 10
105.751
 20
-10.2866
 11
105.665
 21
-10.3924
  0
LINE
  8
0
 10
105.665
 20
-10.3924
 11
105.569
 21
-10.4886
  0
LINE
  8
0
 10
105.569
 20
-10.4886
 11
105.463
 21
-10.5742
  0
LINE
  8
0
 10
105.463
 20
-10.5742
 11
105.349
 21
-10.6483
  0
LINE
  8
0
 10
105.349
 20
-10.6483
 11
105.228
 21
-10.7101
  0
LINE
  8
0
 10
105.228
 20
-10.7101
 11
105.101
 21
-10.7589
  0
LINE
  8
0
 10
105.101
 20
-10.7589
 11
104.969
 21
-10.7941
  0
LINE
  8
0
 10
104.969
 20
-10.7941
 11
104.835
 21
-10.8154
  0
LINE
  8
0
 10
104.835
 20
-10.8154
 11
104.699
 21
-10.8225
  0
LINE
  8
0
 10
104.699
 20
-10.8225
 11
104.563
 21
-10.8154
  0
LINE
  8
0
 10
68.063
 20
-10.8154
 11
67.9286
 21
-10.7941
  0
LINE
  8
0
 10
67.9286
 20
-10.7941
 11
67.7972
 21
-10.7589
  0
LINE
  8
0
 10
67.7972
 20
-10.7589
 11
67.6701
 21
-10.7101
  0
LINE
  8
0
 10
67.6701
 20
-10.7101
 11
67.5489
 21
-10.6483
  0
LINE
  8
0
 10
67.5489
 20
-10.6483
 11
67.4348
 21
-10.5742
  0
LINE
  8
0
 10
67.4348
 20
-10.5742
 11
67.329
 21
-10.4886
  0
LINE
  8
0
 10
67.329
 20
-10.4886
 11
67.2328
 21
-10.3924
  0
LINE
  8
0
 10
67.2328
 20
-10.3924
 11
67.1472
 21
-10.2866
  0
LINE
  8
0
 10
67.1472
 20
-10.2866
 11
67.073
 21
-10.1725
  0
LINE
  8
0
 10
67.073
 20
-10.1725
 11
67.0113
 21
-10.0513
  0
LINE
  8
0
 10
67.0113
 20
-10.0513
 11
66.9625
 21
-9.92421
  0
LINE
  8
0
 10
66.9625
 20
-9.92421
 11
66.9273
 21
-9.79279
  0
LINE
  8
0
 10
66.9273
 20
-9.79279
 11
66.906
 21
-9.65839
  0
LINE
  8
0
 10
66.906
 20
-9.65839
 11
66.8989
 21
-9.52249
  0
LINE
  8
0
 10
66.8989
 20
-9.52249
 11
66.906
 21
-9.38661
  0
LINE
  8
0
 10
66.906
 20
-9.38661
 11
66.9273
 21
-9.25221
  0
LINE
  8
0
 10
66.9273
 20
-9.25221
 11
66.9625
 21
-9.12077
  0
LINE
  8
0
 10
66.9625
 20
-9.12077
 11
67.0113
 21
-8.99374
  0
LINE
  8
0
 10
67.0113
 20
-8.99374
 11
67.073
 21
-8.87248
  0
LINE
  8
0
 10
67.073
 20
-8.87248
 11
67.1472
 21
-8.75838
  0
LINE
  8
0
 10
67.1472
 20
-8.75838
 11
67.2328
 21
-8.65263
  0
LINE
  8
0
 10
67.2328
 20
-8.65263
 11
67.329
 21
-8.55643
  0
LINE
  8
0
 10
67.329
 20
-8.55643
 11
67.4348
 21
-8.47078
  0
LINE
  8
0
 10
67.4348
 20
-8.47078
 11
67.5489
 21
-8.39667
  0
LINE
  8
0
 10
67.5489
 20
-8.39667
 11
67.6701
 21
-8.3349
  0
LINE
  8
0
 10
67.6701
 20
-8.3349
 11
67.7972
 21
-8.28613
  0
LINE
  8
0
 10
67.7972
 20
-8.28613
 11
67.9286
 21
-8.25092
  0
LINE
  8
0
 10
67.9286
 20
-8.25092
 11
68.063
 21
-8.22963
  0
LINE
  8
0
 10
68.063
 20
-8.22963
 11
68.1989
 21
-8.2225
  0
LINE
  8
0
 10
68.1989
 20
-8.2225
 11
68.3348
 21
-8.22963
  0
LINE
  8
0
 10
68.3348
 20
-8.22963
 11
68.4692
 21
-8.25092
  0
LINE
  8
0
 10
68.4692
 20
-8.25092
 11
68.6006
 21
-8.28615
  0
LINE
  8
0
 10
68.6006
 20
-8.28615
 11
68.7276
 21
-8.3349
  0
LINE
  8
0
 10
68.7276
 20
-8.3349
 11
68.8489
 21
-8.39667
  0
LINE
  8
0
 10
68.8489
 20
-8.39667
 11
68.963
 21
-8.47076
  0
LINE
  8
0
 10
68.963
 20
-8.47076
 11
69.0687
 21
-8.55641
  0
LINE
  8
0
 10
69.0687
 20
-8.55641
 11
69.165
 21
-8.65262
  0
LINE
  8
0
 10
69.165
 20
-8.65262
 11
69.2506
 21
-8.75836
  0
LINE
  8
0
 10
69.2506
 20
-8.75836
 11
69.3247
 21
-8.8725
  0
LINE
  8
0
 10
69.3247
 20
-8.8725
 11
69.3865
 21
-8.99373
  0
LINE
  8
0
 10
69.3865
 20
-8.99373
 11
69.4353
 21
-9.12077
  0
LINE
  8
0
 10
69.4353
 20
-9.12077
 11
69.4705
 21
-9.2522
  0
LINE
  8
0
 10
69.4705
 20
-9.2522
 11
69.4918
 21
-9.3866
  0
LINE
  8
0
 10
69.4918
 20
-9.3866
 11
69.4989
 21
-9.52249
  0
LINE
  8
0
 10
69.4989
 20
-9.52249
 11
69.4918
 21
-9.65839
  0
LINE
  8
0
 10
69.4918
 20
-9.65839
 11
69.4705
 21
-9.79277
  0
LINE
  8
0
 10
69.4705
 20
-9.79277
 11
69.4353
 21
-9.92421
  0
LINE
  8
0
 10
69.4353
 20
-9.92421
 11
69.3865
 21
-10.0513
  0
LINE
  8
0
 10
69.3865
 20
-10.0513
 11
69.3247
 21
-10.1725
  0
LINE
  8
0
 10
69.3247
 20
-10.1725
 11
69.2506
 21
-10.2866
  0
LINE
  8
0
 10
69.2506
 20
-10.2866
 11
69.165
 21
-10.3924
  0
LINE
  8
0
 10
69.165
 20
-10.3924
 11
69.0688
 21
-10.4886
  0
LINE
  8
0
 10
69.0688
 20
-10.4886
 11
68.963
 21
-10.5742
  0
LINE
  8
0
 10
68.963
 20
-10.5742
 11
68.8489
 21
-10.6483
  0
LINE
  8
0
 10
68.8489
 20
-10.6483
 11
68.7276
 21
-10.7101
  0
LINE
  8
0
 10
68.7276
 20
-10.7101
 11
68.6006
 21
-10.7589
  0
LINE
  8
0
 10
68.6006
 20
-10.7589
 11
68.4692
 21
-10.7941
  0
LINE
  8
0
 10
68.4692
 20
-10.7941
 11
68.3348
 21
-10.8154
  0
LINE
  8
0
 10
68.3348
 20
-10.8154
 11
68.1989
 21
-10.8225
  0
LINE
  8
0
 10
68.1989
 20
-10.8225
 11
68.063
 21
-10.8154
  0
LINE
  8
0
 10
155.298
 20
-19.1002
 11
154.903
 21
-19.0341
  0
LINE
  8
0
 10
154.903
 20
-19.0341
 11
154.524
 21
-18.9072
  0
LINE
  8
0
 10
154.524
 20
-18.9072
 11
154.169
 21
-18.7224
  0
LINE
  8
0
 10
154.169
 20
-18.7224
 11
153.847
 21
-18.4844
  0
LINE
  8
0
 10
153.847
 20
-18.4844
 11
153.567
 21
-18.199
  0
LINE
  8
0
 10
153.567
 20
-18.199
 11
153.334
 21
-17.8732
  0
LINE
  8
0
 10
153.334
 20
-17.8732
 11
153.156
 21
-17.5151
  0
LINE
  8
0
 10
153.156
 20
-17.5151
 11
153.035
 21
-17.1335
  0
LINE
  8
0
 10
153.035
 20
-17.1335
 11
152.976
 21
-16.7378
  0
LINE
  8
0
 10
152.976
 20
-16.7378
 11
152.98
 21
-16.3376
  0
LINE
  8
0
 10
152.98
 20
-16.3376
 11
153.046
 21
-15.943
  0
LINE
  8
0
 10
153.046
 20
-15.943
 11
153.173
 21
-15.5635
  0
LINE
  8
0
 10
153.173
 20
-15.5635
 11
153.357
 21
-15.2086
  0
LINE
  8
0
 10
153.357
 20
-15.2086
 11
153.595
 21
-14.8869
  0
LINE
  8
0
 10
153.595
 20
-14.8869
 11
153.881
 21
-14.6065
  0
LINE
  8
0
 10
153.881
 20
-14.6065
 11
154.207
 21
-14.3741
  0
LINE
  8
0
 10
154.207
 20
-14.3741
 11
154.565
 21
-14.1956
  0
LINE
  8
0
 10
154.565
 20
-14.1956
 11
154.946
 21
-14.0753
  0
LINE
  8
0
 10
154.946
 20
-14.0753
 11
155.342
 21
-14.0161
  0
LINE
  8
0
 10
155.342
 20
-14.0161
 11
155.742
 21
-14.0196
  0
LINE
  8
0
 10
155.742
 20
-14.0196
 11
156.137
 21
-14.0856
  0
LINE
  8
0
 10
156.137
 20
-14.0856
 11
156.516
 21
-14.2126
  0
LINE
  8
0
 10
156.516
 20
-14.2126
 11
156.871
 21
-14.3974
  0
LINE
  8
0
 10
156.871
 20
-14.3974
 11
157.193
 21
-14.6354
  0
LINE
  8
0
 10
157.193
 20
-14.6354
 11
157.473
 21
-14.9208
  0
LINE
  8
0
 10
157.473
 20
-14.9208
 11
157.706
 21
-15.2466
  0
LINE
  8
0
 10
157.706
 20
-15.2466
 11
157.884
 21
-15.6046
  0
LINE
  8
0
 10
157.884
 20
-15.6046
 11
158.005
 21
-15.9863
  0
LINE
  8
0
 10
158.005
 20
-15.9863
 11
158.064
 21
-16.382
  0
LINE
  8
0
 10
158.064
 20
-16.382
 11
158.06
 21
-16.7821
  0
LINE
  8
0
 10
158.06
 20
-16.7821
 11
157.994
 21
-17.1768
  0
LINE
  8
0
 10
157.994
 20
-17.1768
 11
157.867
 21
-17.5562
  0
LINE
  8
0
 10
157.867
 20
-17.5562
 11
157.682
 21
-17.9112
  0
LINE
  8
0
 10
157.682
 20
-17.9112
 11
157.444
 21
-18.2328
  0
LINE
  8
0
 10
157.444
 20
-18.2328
 11
157.159
 21
-18.5133
  0
LINE
  8
0
 10
157.159
 20
-18.5133
 11
156.833
 21
-18.7457
  0
LINE
  8
0
 10
156.833
 20
-18.7457
 11
156.475
 21
-18.9242
  0
LINE
  8
0
 10
156.475
 20
-18.9242
 11
156.094
 21
-19.0445
  0
LINE
  8
0
 10
156.094
 20
-19.0445
 11
155.698
 21
-19.1037
  0
LINE
  8
0
 10
155.698
 20
-19.1037
 11
155.298
 21
-19.1002
  0
LINE
  8
0
 10
116.81
 20
-27.9857
 11
116.415
 21
-27.9197
  0
LINE
  8
0
 10
116.415
 20
-27.9197
 11
116.036
 21
-27.7927
  0
LINE
  8
0
 10
116.036
 20
-27.7927
 11
115.681
 21
-27.608
  0
LINE
  8
0
 10
115.681
 20
-27.608
 11
115.359
 21
-27.37
  0
LINE
  8
0
 10
115.359
 20
-27.37
 11
115.079
 21
-27.0846
  0
LINE
  8
0
 10
115.079
 20
-27.0846
 11
114.847
 21
-26.7588
  0
LINE
  8
0
 10
114.847
 20
-26.7588
 11
114.668
 21
-26.4007
  0
LINE
  8
0
 10
114.668
 20
-26.4007
 11
114.548
 21
-26.0191
  0
LINE
  8
0
 10
114.548
 20
-26.0191
 11
114.489
 21
-25.6233
  0
LINE
  8
0
 10
114.489
 20
-25.6233
 11
114.492
 21
-25.2232
  0
LINE
  8
0
 10
114.492
 20
-25.2232
 11
114.558
 21
-24.8286
  0
LINE
  8
0
 10
114.558
 20
-24.8286
 11
114.685
 21
-24.4491
  0
LINE
  8
0
 10
114.685
 20
-24.4491
 11
114.87
 21
-24.0942
  0
LINE
  8
0
 10
114.87
 20
-24.0942
 11
115.108
 21
-23.7725
  0
LINE
  8
0
 10
115.108
 20
-23.7725
 11
115.393
 21
-23.492
  0
LINE
  8
0
 10
115.393
 20
-23.492
 11
115.719
 21
-23.2597
  0
LINE
  8
0
 10
115.719
 20
-23.2597
 11
116.077
 21
-23.0811
  0
LINE
  8
0
 10
116.077
 20
-23.0811
 11
116.459
 21
-22.9608
  0
LINE
  8
0
 10
116.459
 20
-22.9608
 11
116.854
 21
-22.9017
  0
LINE
  8
0
 10
116.854
 20
-22.9017
 11
117.255
 21
-22.9052
  0
LINE
  8
0
 10
117.255
 20
-22.9052
 11
117.649
 21
-22.9712
  0
LINE
  8
0
 10
117.649
 20
-22.9712
 11
118.029
 21
-23.0982
  0
LINE
  8
0
 10
118.029
 20
-23.0982
 11
118.384
 21
-23.2829
  0
LINE
  8
0
 10
118.384
 20
-23.2829
 11
118.705
 21
-23.521
  0
LINE
  8
0
 10
118.705
 20
-23.521
 11
118.986
 21
-23.8064
  0
LINE
  8
0
 10
118.986
 20
-23.8064
 11
119.218
 21
-24.1321
  0
LINE
  8
0
 10
119.218
 20
-24.1321
 11
119.397
 21
-24.4902
  0
LINE
  8
0
 10
119.397
 20
-24.4902
 11
119.517
 21
-24.8718
  0
LINE
  8
0
 10
119.517
 20
-24.8718
 11
119.576
 21
-25.2676
  0
LINE
  8
0
 10
119.576
 20
-25.2676
 11
119.573
 21
-25.6677
  0
LINE
  8
0
 10
119.573
 20
-25.6677
 11
119.507
 21
-26.0624
  0
LINE
  8
0
 10
119.507
 20
-26.0624
 11
119.38
 21
-26.4418
  0
LINE
  8
0
 10
119.38
 20
-26.4418
 11
119.195
 21
-26.7968
  0
LINE
  8
0
 10
119.195
 20
-26.7968
 11
118.957
 21
-27.1184
  0
LINE
  8
0
 10
118.957
 20
-27.1184
 11
118.671
 21
-27.3989
  0
LINE
  8
0
 10
118.671
 20
-27.3989
 11
118.346
 21
-27.6312
  0
LINE
  8
0
 10
118.346
 20
-27.6312
 11
117.988
 21
-27.8098
  0
LINE
  8
0
 10
117.988
 20
-27.8098
 11
117.606
 21
-27.9301
  0
LINE
  8
0
 10
117.606
 20
-27.9301
 11
117.21
 21
-27.9892
  0
LINE
  8
0
 10
117.21
 20
-27.9892
 11
116.81
 21
-27.9857
  0
LINE
  8
0
 10
122.926
 20
-49.3154
 11
121.611
 21
-49.0952
  0
LINE
  8
0
 10
121.611
 20
-49.0952
 11
120.346
 21
-48.672
  0
LINE
  8
0
 10
120.346
 20
-48.672
 11
119.163
 21
-48.0561
  0
LINE
  8
0
 10
119.163
 20
-48.0561
 11
118.091
 21
-47.2627
  0
LINE
  8
0
 10
118.091
 20
-47.2627
 11
117.156
 21
-46.3114
  0
LINE
  8
0
 10
117.156
 20
-46.3114
 11
116.381
 21
-45.2255
  0
LINE
  8
0
 10
116.381
 20
-45.2255
 11
115.786
 21
-44.0319
  0
LINE
  8
0
 10
115.786
 20
-44.0319
 11
115.385
 21
-42.7598
  0
LINE
  8
0
 10
115.385
 20
-42.7598
 11
115.188
 21
-41.4406
  0
LINE
  8
0
 10
115.188
 20
-41.4406
 11
115.2
 21
-40.1069
  0
LINE
  8
0
 10
115.2
 20
-40.1069
 11
115.42
 21
-38.7914
  0
LINE
  8
0
 10
115.42
 20
-38.7914
 11
115.843
 21
-37.5265
  0
LINE
  8
0
 10
115.843
 20
-37.5265
 11
116.459
 21
-36.3434
  0
LINE
  8
0
 10
116.459
 20
-36.3434
 11
117.252
 21
-35.2712
  0
LINE
  8
0
 10
117.252
 20
-35.2712
 11
118.203
 21
-34.3363
  0
LINE
  8
0
 10
118.203
 20
-34.3363
 11
119.289
 21
-33.5618
  0
LINE
  8
0
 10
119.289
 20
-33.5618
 11
120.483
 21
-32.9666
  0
LINE
  8
0
 10
120.483
 20
-32.9666
 11
121.755
 21
-32.5656
  0
LINE
  8
0
 10
121.755
 20
-32.5656
 11
139.294
 21
-28.5164
  0
LINE
  8
0
 10
139.294
 20
-28.5164
 11
140.613
 21
-28.3193
  0
LINE
  8
0
 10
140.613
 20
-28.3193
 11
141.947
 21
-28.3309
  0
LINE
  8
0
 10
141.947
 20
-28.3309
 11
143.262
 21
-28.5511
  0
LINE
  8
0
 10
143.262
 20
-28.5511
 11
144.527
 21
-28.9743
  0
LINE
  8
0
 10
144.527
 20
-28.9743
 11
145.71
 21
-29.5902
  0
LINE
  8
0
 10
145.71
 20
-29.5902
 11
146.782
 21
-30.3836
  0
LINE
  8
0
 10
146.782
 20
-30.3836
 11
147.717
 21
-31.3349
  0
LINE
  8
0
 10
147.717
 20
-31.3349
 11
148.492
 21
-32.4208
  0
LINE
  8
0
 10
148.492
 20
-32.4208
 11
149.087
 21
-33.6144
  0
LINE
  8
0
 10
149.087
 20
-33.6144
 11
149.488
 21
-34.8865
  0
LINE
  8
0
 10
149.488
 20
-34.8865
 11
149.685
 21
-36.2057
  0
LINE
  8
0
 10
149.685
 20
-36.2057
 11
149.673
 21
-37.5394
  0
LINE
  8
0
 10
149.673
 20
-37.5394
 11
149.453
 21
-38.8549
  0
LINE
  8
0
 10
149.453
 20
-38.8549
 11
149.03
 21
-40.1198
  0
LINE
  8
0
 10
149.03
 20
-40.1198
 11
148.414
 21
-41.3029
  0
LINE
  8
0
 10
148.414
 20
-41.3029
 11
147.621
 21
-42.3751
  0
LINE
  8
0
 10
147.621
 20
-42.3751
 11
146.67
 21
-43.31
  0
LINE
  8
0
 10
146.67
 20
-43.31
 11
145.584
 21
-44.0845
  0
LINE
  8
0
 10
145.584
 20
-44.0845
 11
144.39
 21
-44.6797
  0
LINE
  8
0
 10
144.39
 20
-44.6797
 11
143.118
 21
-45.0807
  0
LINE
  8
0
 10
143.118
 20
-45.0807
 11
125.579
 21
-49.1299
  0
LINE
  8
0
 10
125.579
 20
-49.1299
 11
124.26
 21
-49.327
  0
LINE
  8
0
 10
124.26
 20
-49.327
 11
122.926
 21
-49.3154
  0
LINE
  8
0
 10
58.7406
 20
-50.3529
 11
58.7406
 21
-32.1029
  0
LINE
  8
0
 10
58.7406
 20
-32.1029
 11
61.9156
 21
-32.1029
  0
LINE
  8
0
 10
61.9156
 20
-32.1029
 11
61.9156
 21
-50.3529
  0
LINE
  8
0
 10
61.9156
 20
-50.3529
 11
58.7406
 21
-50.3529
  0
LINE
  8
0
 10
86.8937
 20
-40.2444
 11
86.5454
 21
-40.1861
  0
LINE
  8
0
 10
86.5454
 20
-40.1861
 11
86.2106
 21
-40.0741
  0
LINE
  8
0
 10
86.2106
 20
-40.0741
 11
85.8974
 21
-39.911
  0
LINE
  8
0
 10
85.8974
 20
-39.911
 11
85.6136
 21
-39.701
  0
LINE
  8
0
 10
85.6136
 20
-39.701
 11
85.3661
 21
-39.4492
  0
LINE
  8
0
 10
85.3661
 20
-39.4492
 11
85.1611
 21
-39.1618
  0
LINE
  8
0
 10
85.1611
 20
-39.1618
 11
85.0036
 21
-38.8458
  0
LINE
  8
0
 10
85.0036
 20
-38.8458
 11
84.8974
 21
-38.5091
  0
LINE
  8
0
 10
84.8974
 20
-38.5091
 11
84.8452
 21
-38.1599
  0
LINE
  8
0
 10
84.8452
 20
-38.1599
 11
84.8483
 21
-37.8068
  0
LINE
  8
0
 10
84.8483
 20
-37.8068
 11
84.9066
 21
-37.4586
  0
LINE
  8
0
 10
84.9066
 20
-37.4586
 11
85.0186
 21
-37.1238
  0
LINE
  8
0
 10
85.0186
 20
-37.1238
 11
85.1816
 21
-36.8106
  0
LINE
  8
0
 10
85.1816
 20
-36.8106
 11
85.3917
 21
-36.5268
  0
LINE
  8
0
 10
85.3917
 20
-36.5268
 11
85.6435
 21
-36.2793
  0
LINE
  8
0
 10
85.6435
 20
-36.2793
 11
85.9309
 21
-36.0743
  0
LINE
  8
0
 10
85.9309
 20
-36.0743
 11
86.2469
 21
-35.9168
  0
LINE
  8
0
 10
86.2469
 20
-35.9168
 11
86.5836
 21
-35.8106
  0
LINE
  8
0
 10
86.5836
 20
-35.8106
 11
86.9328
 21
-35.7584
  0
LINE
  8
0
 10
86.9328
 20
-35.7584
 11
87.2859
 21
-35.7615
  0
LINE
  8
0
 10
87.2859
 20
-35.7615
 11
87.6341
 21
-35.8197
  0
LINE
  8
0
 10
87.6341
 20
-35.8197
 11
87.9689
 21
-35.9318
  0
LINE
  8
0
 10
87.9689
 20
-35.9318
 11
88.2821
 21
-36.0948
  0
LINE
  8
0
 10
88.2821
 20
-36.0948
 11
88.5659
 21
-36.3048
  0
LINE
  8
0
 10
88.5659
 20
-36.3048
 11
88.8134
 21
-36.5567
  0
LINE
  8
0
 10
88.8134
 20
-36.5567
 11
89.0184
 21
-36.8441
  0
LINE
  8
0
 10
89.0184
 20
-36.8441
 11
89.1759
 21
-37.16
  0
LINE
  8
0
 10
89.1759
 20
-37.16
 11
89.2821
 21
-37.4968
  0
LINE
  8
0
 10
89.2821
 20
-37.4968
 11
89.3343
 21
-37.846
  0
LINE
  8
0
 10
89.3343
 20
-37.846
 11
89.3312
 21
-38.199
  0
LINE
  8
0
 10
89.3312
 20
-38.199
 11
89.2729
 21
-38.5472
  0
LINE
  8
0
 10
89.2729
 20
-38.5472
 11
89.1609
 21
-38.8821
  0
LINE
  8
0
 10
89.1609
 20
-38.8821
 11
88.9979
 21
-39.1953
  0
LINE
  8
0
 10
88.9979
 20
-39.1953
 11
88.7879
 21
-39.479
  0
LINE
  8
0
 10
88.7879
 20
-39.479
 11
88.536
 21
-39.7265
  0
LINE
  8
0
 10
88.536
 20
-39.7265
 11
88.2486
 21
-39.9315
  0
LINE
  8
0
 10
88.2486
 20
-39.9315
 11
87.9326
 21
-40.0891
  0
LINE
  8
0
 10
87.9326
 20
-40.0891
 11
87.5959
 21
-40.1953
  0
LINE
  8
0
 10
87.5959
 20
-40.1953
 11
87.2467
 21
-40.2474
  0
LINE
  8
0
 10
87.2467
 20
-40.2474
 11
86.8937
 21
-40.2444
  0
LINE
  8
0
 10
170.992
 20
-44.4339
 11
170.643
 21
-44.3756
  0
LINE
  8
0
 10
170.643
 20
-44.3756
 11
170.308
 21
-44.2635
  0
LINE
  8
0
 10
170.308
 20
-44.2635
 11
169.995
 21
-44.1005
  0
LINE
  8
0
 10
169.995
 20
-44.1005
 11
169.711
 21
-43.8905
  0
LINE
  8
0
 10
169.711
 20
-43.8905
 11
169.464
 21
-43.6387
  0
LINE
  8
0
 10
169.464
 20
-43.6387
 11
169.259
 21
-43.3512
  0
LINE
  8
0
 10
169.259
 20
-43.3512
 11
169.101
 21
-43.0353
  0
LINE
  8
0
 10
169.101
 20
-43.0353
 11
168.995
 21
-42.6985
  0
LINE
  8
0
 10
168.995
 20
-42.6985
 11
168.943
 21
-42.3493
  0
LINE
  8
0
 10
168.943
 20
-42.3493
 11
168.946
 21
-41.9963
  0
LINE
  8
0
 10
168.946
 20
-41.9963
 11
169.004
 21
-41.6481
  0
LINE
  8
0
 10
169.004
 20
-41.6481
 11
169.116
 21
-41.3133
  0
LINE
  8
0
 10
169.116
 20
-41.3133
 11
169.279
 21
-41.0001
  0
LINE
  8
0
 10
169.279
 20
-41.0001
 11
169.49
 21
-40.7163
  0
LINE
  8
0
 10
169.49
 20
-40.7163
 11
169.741
 21
-40.4688
  0
LINE
  8
0
 10
169.741
 20
-40.4688
 11
170.029
 21
-40.2638
  0
LINE
  8
0
 10
170.029
 20
-40.2638
 11
170.345
 21
-40.1062
  0
LINE
  8
0
 10
170.345
 20
-40.1062
 11
170.681
 21
-40.0001
  0
LINE
  8
0
 10
170.681
 20
-40.0001
 11
171.031
 21
-39.9479
  0
LINE
  8
0
 10
171.031
 20
-39.9479
 11
171.384
 21
-39.951
  0
LINE
  8
0
 10
171.384
 20
-39.951
 11
171.732
 21
-40.0092
  0
LINE
  8
0
 10
171.732
 20
-40.0092
 11
172.067
 21
-40.1213
  0
LINE
  8
0
 10
172.067
 20
-40.1213
 11
172.38
 21
-40.2843
  0
LINE
  8
0
 10
172.38
 20
-40.2843
 11
172.664
 21
-40.4943
  0
LINE
  8
0
 10
172.664
 20
-40.4943
 11
172.911
 21
-40.7461
  0
LINE
  8
0
 10
172.911
 20
-40.7461
 11
173.116
 21
-41.0336
  0
LINE
  8
0
 10
173.116
 20
-41.0336
 11
173.274
 21
-41.3495
  0
LINE
  8
0
 10
173.274
 20
-41.3495
 11
173.38
 21
-41.6863
  0
LINE
  8
0
 10
173.38
 20
-41.6863
 11
173.432
 21
-42.0355
  0
LINE
  8
0
 10
173.432
 20
-42.0355
 11
173.429
 21
-42.3885
  0
LINE
  8
0
 10
173.429
 20
-42.3885
 11
173.371
 21
-42.7367
  0
LINE
  8
0
 10
173.371
 20
-42.7367
 11
173.259
 21
-43.0715
  0
LINE
  8
0
 10
173.259
 20
-43.0715
 11
173.096
 21
-43.3847
  0
LINE
  8
0
 10
173.096
 20
-43.3847
 11
172.886
 21
-43.6685
  0
LINE
  8
0
 10
172.886
 20
-43.6685
 11
172.634
 21
-43.916
  0
LINE
  8
0
 10
172.634
 20
-43.916
 11
172.346
 21
-44.121
  0
LINE
  8
0
 10
172.346
 20
-44.121
 11
172.03
 21
-44.2786
  0
LINE
  8
0
 10
172.03
 20
-44.2786
 11
171.694
 21
-44.3847
  0
LINE
  8
0
 10
171.694
 20
-44.3847
 11
171.345
 21
-44.4369
  0
LINE
  8
0
 10
171.345
 20
-44.4369
 11
170.992
 21
-44.4339
  0
LINE
  8
0
 10
81.1867
 20
-47.2081
 11
106.187
 21
-47.2081
  0
LINE
  8
0
 10
106.187
 20
-47.2081
 11
106.187
 21
-50.3831
  0
LINE
  8
0
 10
106.187
 20
-50.3831
 11
81.1867
 21
-50.3831
  0
LINE
  8
0
 10
81.1867
 20
-50.3831
 11
81.1867
 21
-47.2081
  0
LINE
  8
0
 10
-55.4028
 20
-65.1213
 11
-55.4028
 21
-46.8713
  0
LINE
  8
0
 10
-55.4028
 20
-46.8713
 11
-58.5652
 21
-46.8713
  0
LINE
  8
0
 10
-58.5652
 20
-46.8713
 11
-58.5652
 21
-46.3713
  0
LINE
  8
0
 10
-58.5652
 20
-46.3713
 11
-68.0777
 21
-46.3713
  0
LINE
  8
0
 10
-68.0777
 20
-46.3713
 11
-68.0777
 21
-31.3713
  0
LINE
  8
0
 10
-68.0777
 20
-31.3713
 11
-58.5652
 21
-31.3713
  0
LINE
  8
0
 10
-58.5652
 20
-31.3713
 11
-58.5652
 21
-26.8713
  0
LINE
  8
0
 10
-58.5652
 20
-26.8713
 11
-55.4028
 21
-26.8713
  0
LINE
  8
0
 10
-55.4028
 20
-26.8713
 11
-55.4028
 21
-6.87132
  0
LINE
  8
0
 10
-55.4028
 20
-6.87132
 11
-58.5652
 21
-6.87132
  0
LINE
  8
0
 10
-58.5652
 20
-6.87132
 11
-58.5652
 21
13.1287
  0
LINE
  8
0
 10
-58.5652
 20
13.1287
 11
-55.4027
 21
13.1286
  0
LINE
  8
0
 10
-55.4027
 20
13.1286
 11
-55.4027
 21
34.8786
  0
LINE
  8
0
 10
-55.4027
 20
34.8786
 11
-64.3277
 21
34.8787
  0
LINE
  8
0
 10
-64.3277
 20
34.8787
 11
-64.3277
 21
32.0412
  0
LINE
  8
0
 10
-64.3277
 20
32.0412
 11
-81.8277
 21
32.0412
  0
LINE
  8
0
 10
-81.8277
 20
32.0412
 11
-81.8277
 21
34.8787
  0
LINE
  8
0
 10
-81.8277
 20
34.8787
 11
-90.7527
 21
34.8786
  0
LINE
  8
0
 10
-90.7527
 20
34.8786
 11
-90.7527
 21
13.1287
  0
LINE
  8
0
 10
-90.7527
 20
13.1287
 11
-87.5902
 21
13.1287
  0
LINE
  8
0
 10
-87.5902
 20
13.1287
 11
-87.5902
 21
-6.87132
  0
LINE
  8
0
 10
-87.5902
 20
-6.87132
 11
-90.7527
 21
-6.87134
  0
LINE
  8
0
 10
-90.7527
 20
-6.87134
 11
-90.7527
 21
-26.8713
  0
LINE
  8
0
 10
-90.7527
 20
-26.8713
 11
-87.5902
 21
-26.8713
  0
LINE
  8
0
 10
-87.5902
 20
-26.8713
 11
-87.5902
 21
-46.8713
  0
LINE
  8
0
 10
-87.5902
 20
-46.8713
 11
-90.7527
 21
-46.8713
  0
LINE
  8
0
 10
-90.7527
 20
-46.8713
 11
-90.7527
 21
-65.1213
  0
LINE
  8
0
 10
-90.7527
 20
-65.1213
 11
-81.8277
 21
-65.1213
  0
LINE
  8
0
 10
-81.8277
 20
-65.1213
 11
-81.8277
 21
-61.9838
  0
LINE
  8
0
 10
-81.8277
 20
-61.9838
 11
-64.3277
 21
-61.9838
  0
LINE
  8
0
 10
-64.3277
 20
-61.9838
 11
-64.3277
 21
-65.1213
  0
LINE
  8
0
 10
-64.3277
 20
-65.1213
 11
-55.4028
 21
-65.1213
  0
LINE
  8
0
 10
30.4961
 20
-92.4621
 11
53.4961
 21
-92.4621
  0
LINE
  8
0
 10
53.4961
 20
-92.4621
 11
53.4961
 21
-63.4371
  0
LINE
  8
0
 10
53.4961
 20
-63.4371
 11
35.4961
 21
-63.4371
  0
LINE
  8
0
 10
35.4961
 20
-63.4371
 11
35.4961
 21
-60.2746
  0
LINE
  8
0
 10
35.4961
 20
-60.2746
 11
0.496094
 21
-60.2746
  0
LINE
  8
0
 10
0.496094
 20
-60.2746
 11
0.496078
 21
-63.4371
  0
LINE
  8
0
 10
0.496078
 20
-63.4371
 11
-13.9164
 21
-63.4371
  0
LINE
  8
0
 10
-13.9164
 20
-63.4371
 11
-13.9164
 21
-69.3996
  0
LINE
  8
0
 10
-13.9164
 20
-69.3996
 11
-17.0039
 21
-69.3996
  0
LINE
  8
0
 10
-17.0039
 20
-69.3996
 11
-17.0039
 21
-86.4996
  0
LINE
  8
0
 10
-17.0039
 20
-86.4996
 11
-13.9164
 21
-86.4996
  0
LINE
  8
0
 10
-13.9164
 20
-86.4996
 11
-13.9164
 21
-92.4621
  0
LINE
  8
0
 10
-13.9164
 20
-92.4621
 11
5.49609
 21
-92.4621
  0
LINE
  8
0
 10
5.49609
 20
-92.4621
 11
5.49608
 21
-95.6246
  0
LINE
  8
0
 10
5.49608
 20
-95.6246
 11
30.4961
 21
-95.6246
  0
LINE
  8
0
 10
30.4961
 20
-95.6246
 11
30.4961
 21
-92.4621
  0
LINE
  8
0
 10
26.578
 20
-80.9277
 11
26.1644
 21
-80.8622
  0
LINE
  8
0
 10
26.1644
 20
-80.8622
 11
25.76
 21
-80.7538
  0
LINE
  8
0
 10
25.76
 20
-80.7538
 11
25.3691
 21
-80.6038
  0
LINE
  8
0
 10
25.3691
 20
-80.6038
 11
24.996
 21
-80.4137
  0
LINE
  8
0
 10
24.996
 20
-80.4137
 11
24.6449
 21
-80.1857
  0
LINE
  8
0
 10
24.6449
 20
-80.1857
 11
24.3195
 21
-79.9221
  0
LINE
  8
0
 10
24.3195
 20
-79.9221
 11
24.0235
 21
-79.6261
  0
LINE
  8
0
 10
24.0235
 20
-79.6261
 11
23.76
 21
-79.3007
  0
LINE
  8
0
 10
23.76
 20
-79.3007
 11
23.532
 21
-78.9496
  0
LINE
  8
0
 10
23.532
 20
-78.9496
 11
23.3419
 21
-78.5765
  0
LINE
  8
0
 10
23.3419
 20
-78.5765
 11
23.1918
 21
-78.1856
  0
LINE
  8
0
 10
23.1918
 20
-78.1856
 11
23.0835
 21
-77.7812
  0
LINE
  8
0
 10
23.0835
 20
-77.7812
 11
23.018
 21
-77.3677
  0
LINE
  8
0
 10
23.018
 20
-77.3677
 11
22.9961
 21
-76.9496
  0
LINE
  8
0
 10
22.9961
 20
-76.9496
 11
23.018
 21
-76.5315
  0
LINE
  8
0
 10
23.018
 20
-76.5315
 11
23.0835
 21
-76.118
  0
LINE
  8
0
 10
23.0835
 20
-76.118
 11
23.1918
 21
-75.7135
  0
LINE
  8
0
 10
23.1918
 20
-75.7135
 11
23.3419
 21
-75.3226
  0
LINE
  8
0
 10
23.3419
 20
-75.3226
 11
23.532
 21
-74.9496
  0
LINE
  8
0
 10
23.532
 20
-74.9496
 11
23.76
 21
-74.5984
  0
LINE
  8
0
 10
23.76
 20
-74.5984
 11
24.0235
 21
-74.2731
  0
LINE
  8
0
 10
24.0235
 20
-74.2731
 11
24.3195
 21
-73.977
  0
LINE
  8
0
 10
24.3195
 20
-73.977
 11
24.6449
 21
-73.7135
  0
LINE
  8
0
 10
24.6449
 20
-73.7135
 11
24.9961
 21
-73.4855
  0
LINE
  8
0
 10
24.9961
 20
-73.4855
 11
25.3691
 21
-73.2954
  0
LINE
  8
0
 10
25.3691
 20
-73.2954
 11
25.76
 21
-73.1454
  0
LINE
  8
0
 10
25.76
 20
-73.1454
 11
26.1644
 21
-73.037
  0
LINE
  8
0
 10
26.1644
 20
-73.037
 11
26.5779
 21
-72.9715
  0
LINE
  8
0
 10
26.5779
 20
-72.9715
 11
26.9961
 21
-72.9496
  0
LINE
  8
0
 10
26.9961
 20
-72.9496
 11
27.4142
 21
-72.9715
  0
LINE
  8
0
 10
27.4142
 20
-72.9715
 11
27.8277
 21
-73.037
  0
LINE
  8
0
 10
27.8277
 20
-73.037
 11
28.2321
 21
-73.1454
  0
LINE
  8
0
 10
28.2321
 20
-73.1454
 11
28.623
 21
-73.2954
  0
LINE
  8
0
 10
28.623
 20
-73.2954
 11
28.9961
 21
-73.4855
  0
LINE
  8
0
 10
28.9961
 20
-73.4855
 11
29.3472
 21
-73.7135
  0
LINE
  8
0
 10
29.3472
 20
-73.7135
 11
29.6726
 21
-73.977
  0
LINE
  8
0
 10
29.6726
 20
-73.977
 11
29.9686
 21
-74.2731
  0
LINE
  8
0
 10
29.9686
 20
-74.2731
 11
30.2321
 21
-74.5984
  0
LINE
  8
0
 10
30.2321
 20
-74.5984
 11
30.4602
 21
-74.9496
  0
LINE
  8
0
 10
30.4602
 20
-74.9496
 11
30.6502
 21
-75.3227
  0
LINE
  8
0
 10
30.6502
 20
-75.3227
 11
30.8003
 21
-75.7135
  0
LINE
  8
0
 10
30.8003
 20
-75.7135
 11
30.9086
 21
-76.118
  0
LINE
  8
0
 10
30.9086
 20
-76.118
 11
30.9741
 21
-76.5315
  0
LINE
  8
0
 10
30.9741
 20
-76.5315
 11
30.9961
 21
-76.9496
  0
LINE
  8
0
 10
30.9961
 20
-76.9496
 11
30.9742
 21
-77.3677
  0
LINE
  8
0
 10
30.9742
 20
-77.3677
 11
30.9086
 21
-77.7812
  0
LINE
  8
0
 10
30.9086
 20
-77.7812
 11
30.8003
 21
-78.1857
  0
LINE
  8
0
 10
30.8003
 20
-78.1857
 11
30.6502
 21
-78.5765
  0
LINE
  8
0
 10
30.6502
 20
-78.5765
 11
30.4602
 21
-78.9496
  0
LINE
  8
0
 10
30.4602
 20
-78.9496
 11
30.2321
 21
-79.3007
  0
LINE
  8
0
 10
30.2321
 20
-79.3007
 11
29.9686
 21
-79.6261
  0
LINE
  8
0
 10
29.9686
 20
-79.6261
 11
29.6726
 21
-79.9222
  0
LINE
  8
0
 10
29.6726
 20
-79.9222
 11
29.3472
 21
-80.1857
  0
LINE
  8
0
 10
29.3472
 20
-80.1857
 11
28.9961
 21
-80.4137
  0
LINE
  8
0
 10
28.9961
 20
-80.4137
 11
28.623
 21
-80.6038
  0
LINE
  8
0
 10
28.623
 20
-80.6038
 11
28.2321
 21
-80.7538
  0
LINE
  8
0
 10
28.2321
 20
-80.7538
 11
27.8277
 21
-80.8622
  0
LINE
  8
0
 10
27.8277
 20
-80.8622
 11
27.4142
 21
-80.9277
  0
LINE
  8
0
 10
27.4142
 20
-80.9277
 11
26.9961
 21
-80.9496
  0
LINE
  8
0
 10
26.9961
 20
-80.9496
 11
26.578
 21
-80.9277
  0
LINE
  8
0
 10
2.6825
 20
-79.9331
 11
2.37234
 21
-79.884
  0
LINE
  8
0
 10
2.37234
 20
-79.884
 11
2.06903
 21
-79.8027
  0
LINE
  8
0
 10
2.06903
 20
-79.8027
 11
1.77588
 21
-79.6902
  0
LINE
  8
0
 10
1.77588
 20
-79.6902
 11
1.49608
 21
-79.5477
  0
LINE
  8
0
 10
1.49608
 20
-79.5477
 11
1.23274
 21
-79.3766
  0
LINE
  8
0
 10
1.23274
 20
-79.3766
 11
0.988708
 21
-79.179
  0
LINE
  8
0
 10
0.988708
 20
-79.179
 11
0.766647
 21
-78.957
  0
LINE
  8
0
 10
0.766647
 20
-78.957
 11
0.569031
 21
-78.7129
  0
LINE
  8
0
 10
0.569031
 20
-78.7129
 11
0.398026
 21
-78.4496
  0
LINE
  8
0
 10
0.398026
 20
-78.4496
 11
0.255447
 21
-78.1698
  0
LINE
  8
0
 10
0.255447
 20
-78.1698
 11
0.142914
 21
-77.8767
  0
LINE
  8
0
 10
0.142914
 20
-77.8767
 11
0.0616608
 21
-77.5733
  0
LINE
  8
0
 10
0.0616608
 20
-77.5733
 11
0.0125122
 21
-77.2632
  0
LINE
  8
0
 10
0.0125122
 20
-77.2632
 11
-0.00390625
 21
-76.9496
  0
LINE
  8
0
 10
-0.00390625
 20
-76.9496
 11
0.0125275
 21
-76.636
  0
LINE
  8
0
 10
0.0125275
 20
-76.636
 11
0.0616455
 21
-76.3259
  0
LINE
  8
0
 10
0.0616455
 20
-76.3259
 11
0.142914
 21
-76.0225
  0
LINE
  8
0
 10
0.142914
 20
-76.0225
 11
0.255447
 21
-75.7294
  0
LINE
  8
0
 10
0.255447
 20
-75.7294
 11
0.398026
 21
-75.4496
  0
LINE
  8
0
 10
0.398026
 20
-75.4496
 11
0.569031
 21
-75.1862
  0
LINE
  8
0
 10
0.569031
 20
-75.1862
 11
0.766663
 21
-74.9422
  0
LINE
  8
0
 10
0.766663
 20
-74.9422
 11
0.988693
 21
-74.7202
  0
LINE
  8
0
 10
0.988693
 20
-74.7202
 11
1.23274
 21
-74.5225
  0
LINE
  8
0
 10
1.23274
 20
-74.5225
 11
1.49608
 21
-74.3515
  0
LINE
  8
0
 10
1.49608
 20
-74.3515
 11
1.77588
 21
-74.209
  0
LINE
  8
0
 10
1.77588
 20
-74.209
 11
2.06905
 21
-74.0964
  0
LINE
  8
0
 10
2.06905
 20
-74.0964
 11
2.37234
 21
-74.0152
  0
LINE
  8
0
 10
2.37234
 20
-74.0152
 11
2.68251
 21
-73.966
  0
LINE
  8
0
 10
2.68251
 20
-73.966
 11
2.99608
 21
-73.9496
  0
LINE
  8
0
 10
2.99608
 20
-73.9496
 11
3.30968
 21
-73.966
  0
LINE
  8
0
 10
3.30968
 20
-73.966
 11
3.61983
 21
-74.0152
  0
LINE
  8
0
 10
3.61983
 20
-74.0152
 11
3.92314
 21
-74.0964
  0
LINE
  8
0
 10
3.92314
 20
-74.0964
 11
4.21629
 21
-74.209
  0
LINE
  8
0
 10
4.21629
 20
-74.209
 11
4.49608
 21
-74.3515
  0
LINE
  8
0
 10
4.49608
 20
-74.3515
 11
4.75945
 21
-74.5225
  0
LINE
  8
0
 10
4.75945
 20
-74.5225
 11
5.00348
 21
-74.7202
  0
LINE
  8
0
 10
5.00348
 20
-74.7202
 11
5.22552
 21
-74.9422
  0
LINE
  8
0
 10
5.22552
 20
-74.9422
 11
5.42314
 21
-75.1862
  0
LINE
  8
0
 10
5.42314
 20
-75.1862
 11
5.59418
 21
-75.4496
  0
LINE
  8
0
 10
5.59418
 20
-75.4496
 11
5.73672
 21
-75.7294
  0
LINE
  8
0
 10
5.73672
 20
-75.7294
 11
5.84927
 21
-76.0225
  0
LINE
  8
0
 10
5.84927
 20
-76.0225
 11
5.93054
 21
-76.3259
  0
LINE
  8
0
 10
5.93054
 20
-76.3259
 11
5.97966
 21
-76.636
  0
LINE
  8
0
 10
5.97966
 20
-76.636
 11
5.99608
 21
-76.9496
  0
LINE
  8
0
 10
5.99608
 20
-76.9496
 11
5.97966
 21
-77.2632
  0
LINE
  8
0
 10
5.97966
 20
-77.2632
 11
5.93054
 21
-77.5733
  0
LINE
  8
0
 10
5.93054
 20
-77.5733
 11
5.84927
 21
-77.8766
  0
LINE
  8
0
 10
5.84927
 20
-77.8766
 11
5.73672
 21
-78.1698
  0
LINE
  8
0
 10
5.73672
 20
-78.1698
 11
5.59416
 21
-78.4496
  0
LINE
  8
0
 10
5.59416
 20
-78.4496
 11
5.42314
 21
-78.7129
  0
LINE
  8
0
 10
5.42314
 20
-78.7129
 11
5.22554
 21
-78.957
  0
LINE
  8
0
 10
5.22554
 20
-78.957
 11
5.00348
 21
-79.179
  0
LINE
  8
0
 10
5.00348
 20
-79.179
 11
4.75946
 21
-79.3766
  0
LINE
  8
0
 10
4.75946
 20
-79.3766
 11
4.49608
 21
-79.5477
  0
LINE
  8
0
 10
4.49608
 20
-79.5477
 11
4.21629
 21
-79.6902
  0
LINE
  8
0
 10
4.21629
 20
-79.6902
 11
3.92314
 21
-79.8027
  0
LINE
  8
0
 10
3.92314
 20
-79.8027
 11
3.61983
 21
-79.884
  0
LINE
  8
0
 10
3.61983
 20
-79.884
 11
3.30969
 21
-79.9331
  0
LINE
  8
0
 10
3.30969
 20
-79.9331
 11
2.99608
 21
-79.9496
  0
LINE
  8
0
 10
2.99608
 20
-79.9496
 11
2.6825
 21
-79.9331
  0
ENDSEC
  0
SECTION
  2
OBJECTS
  0
DICTIONARY
  0
ENDSEC
  0
EOF
