  0
SECTION
  2
BLOCKS
  0
ENDSEC
  0
SECTION
  2
ENTITIES
  0
LINE
  8
0
 10
34.4444
 20
86.9421
 11
18.3673
 21
90.6538
  0
LINE
  8
0
 10
18.3673
 20
90.6538
 11
19.0787
 21
93.7352
  0
LINE
  8
0
 10
19.0787
 20
93.7352
 11
-11.1267
 21
100.709
  0
LINE
  8
0
 10
-11.1267
 20
100.709
 11
-11.8381
 21
97.6273
  0
LINE
  8
0
 10
-11.8381
 20
97.6273
 11
-29.7787
 21
101.769
  0
LINE
  8
0
 10
-29.7787
 20
101.769
 11
-31.1087
 21
96.0082
  0
LINE
  8
0
 10
-31.1087
 20
96.0082
 11
-34.1171
 21
96.7028
  0
LINE
  8
0
 10
-34.1171
 20
96.7028
 11
-37.9863
 21
79.9436
  0
LINE
  8
0
 10
-37.9863
 20
79.9436
 11
-34.9779
 21
79.2491
  0
LINE
  8
0
 10
-34.9779
 20
79.2491
 11
-36.3079
 21
73.4881
  0
LINE
  8
0
 10
-36.3079
 20
73.4881
 11
-18.3673
 21
69.3462
  0
LINE
  8
0
 10
-18.3673
 20
69.3462
 11
-19.0787
 21
66.2648
  0
LINE
  8
0
 10
-19.0787
 20
66.2648
 11
11.1267
 21
59.2913
  0
LINE
  8
0
 10
11.1267
 20
59.2913
 11
11.8381
 21
62.3727
  0
LINE
  8
0
 10
11.8381
 20
62.3727
 11
27.9152
 21
58.661
  0
LINE
  8
0
 10
27.9152
 20
58.661
 11
34.4444
 21
86.9421
  0
LINE
  8
0
 10
29.7236
 20
-62.8066
 11
30.7601
 21
-62.661
  0
LINE
  8
0
 10
30.7601
 20
-62.661
 11
31.7757
 21
-62.4077
  0
LINE
  8
0
 10
31.7757
 20
-62.4077
 11
32.7593
 21
-62.0497
  0
LINE
  8
0
 10
32.7593
 20
-62.0497
 11
33.7001
 21
-61.5909
  0
LINE
  8
0
 10
33.7001
 20
-61.5909
 11
34.5878
 21
-61.0362
  0
LINE
  8
0
 10
34.5878
 20
-61.0362
 11
35.4126
 21
-60.3918
  0
LINE
  8
0
 10
35.4126
 20
-60.3918
 11
36.1655
 21
-59.6647
  0
LINE
  8
0
 10
36.1655
 20
-59.6647
 11
36.8383
 21
-58.8628
  0
LINE
  8
0
 10
36.8383
 20
-58.8628
 11
37.4237
 21
-57.9951
  0
LINE
  8
0
 10
37.4237
 20
-57.9951
 11
37.9151
 21
-57.0709
  0
LINE
  8
0
 10
37.9151
 20
-57.0709
 11
38.3072
 21
-56.1004
  0
LINE
  8
0
 10
38.3072
 20
-56.1004
 11
38.5957
 21
-55.0942
  0
LINE
  8
0
 10
38.5957
 20
-55.0942
 11
47.2916
 21
-17.4282
  0
LINE
  8
0
 10
47.2916
 20
-17.4282
 11
46.7626
 21
-17.3444
  0
LINE
  8
0
 10
46.7626
 20
-17.3444
 11
43.7295
 21
-16.5317
  0
LINE
  8
0
 10
43.7295
 20
-16.5317
 11
40.7979
 21
-15.4064
  0
LINE
  8
0
 10
40.7979
 20
-15.4064
 11
38
 21
-13.9808
  0
LINE
  8
0
 10
38
 20
-13.9808
 11
35.3664
 21
-12.2705
  0
LINE
  8
0
 10
35.3664
 20
-12.2705
 11
32.9261
 21
-10.2943
  0
LINE
  8
0
 10
32.9261
 20
-10.2943
 11
30.7056
 21
-8.07391
  0
LINE
  8
0
 10
30.7056
 20
-8.07391
 11
28.7295
 21
-5.63354
  0
LINE
  8
0
 10
28.7295
 20
-5.63354
 11
27.0192
 21
-2.99998
  0
LINE
  8
0
 10
27.0192
 20
-2.99998
 11
25.5936
 21
-0.202087
  0
LINE
  8
0
 10
25.5936
 20
-0.202087
 11
24.4683
 21
2.72948
  0
LINE
  8
0
 10
24.4683
 20
2.72948
 11
23.6556
 21
5.76263
  0
LINE
  8
0
 10
23.6556
 20
5.76263
 11
23.1643
 21
8.86414
  0
LINE
  8
0
 10
23.1643
 20
8.86414
 11
23
 21
12
  0
LINE
  8
0
 10
23
 20
12
 11
23.0037
 21
12.0703
  0
LINE
  8
0
 10
23.0037
 20
12.0703
 11
22.8362
 21
12.0438
  0
LINE
  8
0
 10
22.8362
 20
12.0438
 11
22
 21
12
  0
LINE
  8
0
 10
22
 20
12
 11
21.1638
 21
12.0438
  0
LINE
  8
0
 10
21.1638
 20
12.0438
 11
20.3367
 21
12.1748
  0
LINE
  8
0
 10
20.3367
 20
12.1748
 11
19.5279
 21
12.3915
  0
LINE
  8
0
 10
19.5279
 20
12.3915
 11
18.7461
 21
12.6916
  0
LINE
  8
0
 10
18.7461
 20
12.6916
 11
18
 21
13.0718
  0
LINE
  8
0
 10
18
 20
13.0718
 11
17.2977
 21
13.5279
  0
LINE
  8
0
 10
17.2977
 20
13.5279
 11
16.6469
 21
14.0548
  0
LINE
  8
0
 10
16.6469
 20
14.0548
 11
16.0548
 21
14.6469
  0
LINE
  8
0
 10
16.0548
 20
14.6469
 11
15.5279
 21
15.2977
  0
LINE
  8
0
 10
15.5279
 20
15.2977
 11
15.0718
 21
16
  0
LINE
  8
0
 10
15.0718
 20
16
 11
14.6916
 21
16.7461
  0
LINE
  8
0
 10
14.6916
 20
16.7461
 11
14.3915
 21
17.5279
  0
LINE
  8
0
 10
14.3915
 20
17.5279
 11
14.1748
 21
18.3367
  0
LINE
  8
0
 10
14.1748
 20
18.3367
 11
14.0438
 21
19.1638
  0
LINE
  8
0
 10
14.0438
 20
19.1638
 11
14
 21
20
  0
LINE
  8
0
 10
14
 20
20
 11
14.0438
 21
20.8362
  0
LINE
  8
0
 10
14.0438
 20
20.8362
 11
14.1748
 21
21.6633
  0
LINE
  8
0
 10
14.1748
 20
21.6633
 11
14.3915
 21
22.4721
  0
LINE
  8
0
 10
14.3915
 20
22.4721
 11
14.6916
 21
23.2539
  0
LINE
  8
0
 10
14.6916
 20
23.2539
 11
15.0718
 21
24
  0
LINE
  8
0
 10
15.0718
 20
24
 11
15.5279
 21
24.7023
  0
LINE
  8
0
 10
15.5279
 20
24.7023
 11
16.0548
 21
25.353
  0
LINE
  8
0
 10
16.0548
 20
25.353
 11
16.6469
 21
25.9451
  0
LINE
  8
0
 10
16.6469
 20
25.9451
 11
17.2977
 21
26.4721
  0
LINE
  8
0
 10
17.2977
 20
26.4721
 11
18
 21
26.9282
  0
LINE
  8
0
 10
18
 20
26.9282
 11
18.7461
 21
27.3083
  0
LINE
  8
0
 10
18.7461
 20
27.3083
 11
19.5279
 21
27.6084
  0
LINE
  8
0
 10
19.5279
 20
27.6084
 11
20.3367
 21
27.8252
  0
LINE
  8
0
 10
20.3367
 20
27.8252
 11
21.1638
 21
27.9562
  0
LINE
  8
0
 10
21.1638
 20
27.9562
 11
22
 21
28
  0
LINE
  8
0
 10
22
 20
28
 11
22.8362
 21
27.9562
  0
LINE
  8
0
 10
22.8362
 20
27.9562
 11
23.6633
 21
27.8252
  0
LINE
  8
0
 10
23.6633
 20
27.8252
 11
24.4721
 21
27.6084
  0
LINE
  8
0
 10
24.4721
 20
27.6084
 11
25.2539
 21
27.3083
  0
LINE
  8
0
 10
25.2539
 20
27.3083
 11
26
 21
26.9282
  0
LINE
  8
0
 10
26
 20
26.9282
 11
26.7023
 21
26.4721
  0
LINE
  8
0
 10
26.7023
 20
26.4721
 11
26.7363
 21
26.4446
  0
LINE
  8
0
 10
26.7363
 20
26.4446
 11
27.0192
 21
27
  0
LINE
  8
0
 10
27.0192
 20
27
 11
28.7295
 21
29.6335
  0
LINE
  8
0
 10
28.7295
 20
29.6335
 11
30.7056
 21
32.0739
  0
LINE
  8
0
 10
30.7056
 20
32.0739
 11
32.9261
 21
34.2943
  0
LINE
  8
0
 10
32.9261
 20
34.2943
 11
35.3664
 21
36.2705
  0
LINE
  8
0
 10
35.3664
 20
36.2705
 11
38
 21
37.9808
  0
LINE
  8
0
 10
38
 20
37.9808
 11
38.5007
 21
38.2359
  0
LINE
  8
0
 10
38.5007
 20
38.2359
 11
38.3278
 21
38.8813
  0
LINE
  8
0
 10
38.3278
 20
38.8813
 11
38.0822
 21
40.4321
  0
LINE
  8
0
 10
38.0822
 20
40.4321
 11
38
 21
42
  0
LINE
  8
0
 10
38
 20
42
 11
38.0822
 21
43.5679
  0
LINE
  8
0
 10
38.0822
 20
43.5679
 11
38.3278
 21
45.1187
  0
LINE
  8
0
 10
38.3278
 20
45.1187
 11
38.7341
 21
46.6353
  0
LINE
  8
0
 10
38.7341
 20
46.6353
 11
39.0406
 21
47.4335
  0
LINE
  8
0
 10
39.0406
 20
47.4335
 11
-26.6025
 21
62.5884
  0
LINE
  8
0
 10
-26.6025
 20
62.5884
 11
-27.6333
 21
62.7702
  0
LINE
  8
0
 10
-27.6333
 20
62.7702
 11
-28.6775
 21
62.8432
  0
LINE
  8
0
 10
-28.6775
 20
62.8432
 11
-29.7236
 21
62.8066
  0
LINE
  8
0
 10
-29.7236
 20
62.8066
 11
-30.7601
 21
62.661
  0
LINE
  8
0
 10
-30.7601
 20
62.661
 11
-31.7757
 21
62.4077
  0
LINE
  8
0
 10
-31.7757
 20
62.4077
 11
-32.7593
 21
62.0497
  0
LINE
  8
0
 10
-32.7593
 20
62.0497
 11
-33.7001
 21
61.5909
  0
LINE
  8
0
 10
-33.7001
 20
61.5909
 11
-34.5878
 21
61.0362
  0
LINE
  8
0
 10
-34.5878
 20
61.0362
 11
-35.4126
 21
60.3918
  0
LINE
  8
0
 10
-35.4126
 20
60.3918
 11
-36.1655
 21
59.6647
  0
LINE
  8
0
 10
-36.1655
 20
59.6647
 11
-36.8383
 21
58.8628
  0
LINE
  8
0
 10
-36.8383
 20
58.8628
 11
-37.4237
 21
57.9951
  0
LINE
  8
0
 10
-37.4237
 20
57.9951
 11
-37.9151
 21
57.0709
  0
LINE
  8
0
 10
-37.9151
 20
57.0709
 11
-38.3072
 21
56.1004
  0
LINE
  8
0
 10
-38.3072
 20
56.1004
 11
-38.5957
 21
55.0942
  0
LINE
  8
0
 10
-38.5957
 20
55.0942
 11
-58.8413
 21
-32.5991
  0
LINE
  8
0
 10
-58.8413
 20
-32.5991
 11
-59.0231
 21
-33.6299
  0
LINE
  8
0
 10
-59.0231
 20
-33.6299
 11
-59.0961
 21
-34.6741
  0
LINE
  8
0
 10
-59.0961
 20
-34.6741
 11
-59.0595
 21
-35.7202
  0
LINE
  8
0
 10
-59.0595
 20
-35.7202
 11
-58.9139
 21
-36.7567
  0
LINE
  8
0
 10
-58.9139
 20
-36.7567
 11
-58.6606
 21
-37.7723
  0
LINE
  8
0
 10
-58.6606
 20
-37.7723
 11
-58.3026
 21
-38.7559
  0
LINE
  8
0
 10
-58.3026
 20
-38.7559
 11
-57.8438
 21
-39.6967
  0
LINE
  8
0
 10
-57.8438
 20
-39.6967
 11
-57.2891
 21
-40.5844
  0
LINE
  8
0
 10
-57.2891
 20
-40.5844
 11
-56.6447
 21
-41.4092
  0
LINE
  8
0
 10
-56.6447
 20
-41.4092
 11
-55.9176
 21
-42.1621
  0
LINE
  8
0
 10
-55.9176
 20
-42.1621
 11
-55.1157
 21
-42.835
  0
LINE
  8
0
 10
-55.1157
 20
-42.835
 11
-54.248
 21
-43.4203
  0
LINE
  8
0
 10
-54.248
 20
-43.4203
 11
-53.3238
 21
-43.9117
  0
LINE
  8
0
 10
-53.3238
 20
-43.9117
 11
-52.3533
 21
-44.3038
  0
LINE
  8
0
 10
-52.3533
 20
-44.3038
 11
-51.3471
 21
-44.5923
  0
LINE
  8
0
 10
-51.3471
 20
-44.5923
 11
26.6025
 21
-62.5884
  0
LINE
  8
0
 10
26.6025
 20
-62.5884
 11
27.6333
 21
-62.7702
  0
LINE
  8
0
 10
27.6333
 20
-62.7702
 11
28.6775
 21
-62.8432
  0
LINE
  8
0
 10
28.6775
 20
-62.8432
 11
29.7236
 21
-62.8066
  0
LINE
  8
0
 10
-38.7983
 20
37.5882
 11
-33.9056
 21
58.7808
  0
LINE
  8
0
 10
-33.9056
 20
58.7808
 11
-30.812
 21
58.0665
  0
LINE
  8
0
 10
-30.812
 20
58.0665
 11
-35.7047
 21
36.874
  0
LINE
  8
0
 10
-35.7047
 20
36.874
 11
-38.7983
 21
37.5882
  0
LINE
  8
0
 10
-13.4598
 20
50.9399
 11
-12.7456
 21
54.0336
  0
LINE
  8
0
 10
-12.7456
 20
54.0336
 11
17.4598
 21
47.0601
  0
LINE
  8
0
 10
17.4598
 20
47.0601
 11
16.7456
 21
43.9664
  0
LINE
  8
0
 10
16.7456
 20
43.9664
 11
-13.4598
 21
50.9399
  0
LINE
  8
0
 10
-29.8406
 20
17.4569
 11
-24.4418
 21
40.8418
  0
LINE
  8
0
 10
-24.4418
 20
40.8418
 11
-6.21985
 21
36.6349
  0
LINE
  8
0
 10
-6.21985
 20
36.6349
 11
-6.32869
 21
36.9184
  0
LINE
  8
0
 10
-6.32869
 20
36.9184
 11
-6.42351
 21
37.2723
  0
LINE
  8
0
 10
-6.42351
 20
37.2723
 11
-6.48082
 21
37.6341
  0
LINE
  8
0
 10
-6.48082
 20
37.6341
 11
-6.5
 21
38
  0
LINE
  8
0
 10
-6.5
 20
38
 11
-6.48082
 21
38.3658
  0
LINE
  8
0
 10
-6.48082
 20
38.3658
 11
-6.42351
 21
38.7277
  0
LINE
  8
0
 10
-6.42351
 20
38.7277
 11
-6.32869
 21
39.0816
  0
LINE
  8
0
 10
-6.32869
 20
39.0816
 11
-6.1974
 21
39.4236
  0
LINE
  8
0
 10
-6.1974
 20
39.4236
 11
-6.03108
 21
39.75
  0
LINE
  8
0
 10
-6.03108
 20
39.75
 11
-5.83156
 21
40.0572
  0
LINE
  8
0
 10
-5.83156
 20
40.0572
 11
-5.601
 21
40.3419
  0
LINE
  8
0
 10
-5.601
 20
40.3419
 11
-5.34195
 21
40.601
  0
LINE
  8
0
 10
-5.34195
 20
40.601
 11
-5.05724
 21
40.8316
  0
LINE
  8
0
 10
-5.05724
 20
40.8316
 11
-4.74998
 21
41.0311
  0
LINE
  8
0
 10
-4.74998
 20
41.0311
 11
-4.42357
 21
41.1974
  0
LINE
  8
0
 10
-4.42357
 20
41.1974
 11
-4.08156
 21
41.3287
  0
LINE
  8
0
 10
-4.08156
 20
41.3287
 11
-3.72768
 21
41.4235
  0
LINE
  8
0
 10
-3.72768
 20
41.4235
 11
-3.36584
 21
41.4808
  0
LINE
  8
0
 10
-3.36584
 20
41.4808
 11
-2.99998
 21
41.5
  0
LINE
  8
0
 10
-2.99998
 20
41.5
 11
-2.63414
 21
41.4808
  0
LINE
  8
0
 10
-2.63414
 20
41.4808
 11
-2.27231
 21
41.4235
  0
LINE
  8
0
 10
-2.27231
 20
41.4235
 11
-1.91843
 21
41.3287
  0
LINE
  8
0
 10
-1.91843
 20
41.3287
 11
-1.57642
 21
41.1974
  0
LINE
  8
0
 10
-1.57642
 20
41.1974
 11
-1.24998
 21
41.0311
  0
LINE
  8
0
 10
-1.24998
 20
41.0311
 11
-0.942749
 21
40.8316
  0
LINE
  8
0
 10
-0.942749
 20
40.8316
 11
-0.658035
 21
40.601
  0
LINE
  8
0
 10
-0.658035
 20
40.601
 11
-0.398987
 21
40.3419
  0
LINE
  8
0
 10
-0.398987
 20
40.3419
 11
-0.168427
 21
40.0572
  0
LINE
  8
0
 10
-0.168427
 20
40.0572
 11
0.0310822
 21
39.75
  0
LINE
  8
0
 10
0.0310822
 20
39.75
 11
0.197403
 21
39.4236
  0
LINE
  8
0
 10
0.197403
 20
39.4236
 11
0.32869
 21
39.0816
  0
LINE
  8
0
 10
0.32869
 20
39.0816
 11
0.423508
 21
38.7277
  0
LINE
  8
0
 10
0.423508
 20
38.7277
 11
0.48082
 21
38.3658
  0
LINE
  8
0
 10
0.48082
 20
38.3658
 11
0.5
 21
38
  0
LINE
  8
0
 10
0.5
 20
38
 11
0.48082
 21
37.6341
  0
LINE
  8
0
 10
0.48082
 20
37.6341
 11
0.423508
 21
37.2723
  0
LINE
  8
0
 10
0.423508
 20
37.2723
 11
0.32869
 21
36.9184
  0
LINE
  8
0
 10
0.32869
 20
36.9184
 11
0.197403
 21
36.5764
  0
LINE
  8
0
 10
0.197403
 20
36.5764
 11
0.0310822
 21
36.25
  0
LINE
  8
0
 10
0.0310822
 20
36.25
 11
-0.168427
 21
35.9427
  0
LINE
  8
0
 10
-0.168427
 20
35.9427
 11
-0.398987
 21
35.658
  0
LINE
  8
0
 10
-0.398987
 20
35.658
 11
-0.658035
 21
35.399
  0
LINE
  8
0
 10
-0.658035
 20
35.399
 11
-0.7043
 21
35.3615
  0
LINE
  8
0
 10
-0.7043
 20
35.3615
 11
2.84059
 21
34.5431
  0
LINE
  8
0
 10
2.84059
 20
34.5431
 11
-2.55823
 21
11.1582
  0
LINE
  8
0
 10
-2.55823
 20
11.1582
 11
-29.8406
 21
17.4569
  0
LINE
  8
0
 10
-47.7963
 20
-1.38658
 11
-43.2973
 21
18.1008
  0
LINE
  8
0
 10
-43.2973
 20
18.1008
 11
-40.2037
 21
17.3866
  0
LINE
  8
0
 10
-40.2037
 20
17.3866
 11
-44.7027
 21
-2.1008
  0
LINE
  8
0
 10
-44.7027
 20
-2.1008
 11
-47.7963
 21
-1.38658
  0
LINE
  8
0
 10
7.78571
 20
-11.0388
 11
7.57378
 21
-11.0052
  0
LINE
  8
0
 10
7.57378
 20
-11.0052
 11
7.3665
 21
-10.9497
  0
LINE
  8
0
 10
7.3665
 20
-10.9497
 11
7.16618
 21
-10.8728
  0
LINE
  8
0
 10
7.16618
 20
-10.8728
 11
6.97499
 21
-10.7753
  0
LINE
  8
0
 10
6.97499
 20
-10.7753
 11
6.79503
 21
-10.6585
  0
LINE
  8
0
 10
6.79503
 20
-10.6585
 11
6.62828
 21
-10.5234
  0
LINE
  8
0
 10
6.62828
 20
-10.5234
 11
6.47655
 21
-10.3717
  0
LINE
  8
0
 10
6.47655
 20
-10.3717
 11
6.34151
 21
-10.205
  0
LINE
  8
0
 10
6.34151
 20
-10.205
 11
6.22464
 21
-10.025
  0
LINE
  8
0
 10
6.22464
 20
-10.025
 11
6.12723
 21
-9.8338
  0
LINE
  8
0
 10
6.12723
 20
-9.8338
 11
6.05032
 21
-9.63348
  0
LINE
  8
0
 10
6.05032
 20
-9.63348
 11
5.9948
 21
-9.42621
  0
LINE
  8
0
 10
5.9948
 20
-9.42621
 11
5.96123
 21
-9.21428
  0
LINE
  8
0
 10
5.96123
 20
-9.21428
 11
5.95
 21
-8.99998
  0
LINE
  8
0
 10
5.95
 20
-8.99998
 11
5.96123
 21
-8.78571
  0
LINE
  8
0
 10
5.96123
 20
-8.78571
 11
5.9948
 21
-8.57378
  0
LINE
  8
0
 10
5.9948
 20
-8.57378
 11
6.05032
 21
-8.3665
  0
LINE
  8
0
 10
6.05032
 20
-8.3665
 11
6.12723
 21
-8.16618
  0
LINE
  8
0
 10
6.12723
 20
-8.16618
 11
6.22464
 21
-7.97499
  0
LINE
  8
0
 10
6.22464
 20
-7.97499
 11
6.34151
 21
-7.79503
  0
LINE
  8
0
 10
6.34151
 20
-7.79503
 11
6.47655
 21
-7.62828
  0
LINE
  8
0
 10
6.47655
 20
-7.62828
 11
6.62828
 21
-7.47655
  0
LINE
  8
0
 10
6.62828
 20
-7.47655
 11
6.79503
 21
-7.34151
  0
LINE
  8
0
 10
6.79503
 20
-7.34151
 11
6.97499
 21
-7.22464
  0
LINE
  8
0
 10
6.97499
 20
-7.22464
 11
7.16618
 21
-7.12723
  0
LINE
  8
0
 10
7.16618
 20
-7.12723
 11
7.3665
 21
-7.05032
  0
LINE
  8
0
 10
7.3665
 20
-7.05032
 11
7.57378
 21
-6.9948
  0
LINE
  8
0
 10
7.57378
 20
-6.9948
 11
7.78571
 21
-6.96123
  0
LINE
  8
0
 10
7.78571
 20
-6.96123
 11
8
 21
-6.95
  0
LINE
  8
0
 10
8
 20
-6.95
 11
8.21428
 21
-6.96123
  0
LINE
  8
0
 10
8.21428
 20
-6.96123
 11
8.42621
 21
-6.9948
  0
LINE
  8
0
 10
8.42621
 20
-6.9948
 11
8.63348
 21
-7.05032
  0
LINE
  8
0
 10
8.63348
 20
-7.05032
 11
8.8338
 21
-7.12723
  0
LINE
  8
0
 10
8.8338
 20
-7.12723
 11
9.02499
 21
-7.22464
  0
LINE
  8
0
 10
9.02499
 20
-7.22464
 11
9.20496
 21
-7.34151
  0
LINE
  8
0
 10
9.20496
 20
-7.34151
 11
9.3717
 21
-7.47655
  0
LINE
  8
0
 10
9.3717
 20
-7.47655
 11
9.52344
 21
-7.62828
  0
LINE
  8
0
 10
9.52344
 20
-7.62828
 11
9.65848
 21
-7.79503
  0
LINE
  8
0
 10
9.65848
 20
-7.79503
 11
9.77534
 21
-7.97499
  0
LINE
  8
0
 10
9.77534
 20
-7.97499
 11
9.87276
 21
-8.16618
  0
LINE
  8
0
 10
9.87276
 20
-8.16618
 11
9.94966
 21
-8.3665
  0
LINE
  8
0
 10
9.94966
 20
-8.3665
 11
10.0052
 21
-8.57378
  0
LINE
  8
0
 10
10.0052
 20
-8.57378
 11
10.0388
 21
-8.78571
  0
LINE
  8
0
 10
10.0388
 20
-8.78571
 11
10.05
 21
-9
  0
LINE
  8
0
 10
10.05
 20
-9
 11
10.0388
 21
-9.21428
  0
LINE
  8
0
 10
10.0388
 20
-9.21428
 11
10.0052
 21
-9.42621
  0
LINE
  8
0
 10
10.0052
 20
-9.42621
 11
9.94966
 21
-9.63348
  0
LINE
  8
0
 10
9.94966
 20
-9.63348
 11
9.87276
 21
-9.8338
  0
LINE
  8
0
 10
9.87276
 20
-9.8338
 11
9.77534
 21
-10.025
  0
LINE
  8
0
 10
9.77534
 20
-10.025
 11
9.65848
 21
-10.205
  0
LINE
  8
0
 10
9.65848
 20
-10.205
 11
9.52344
 21
-10.3717
  0
LINE
  8
0
 10
9.52344
 20
-10.3717
 11
9.3717
 21
-10.5234
  0
LINE
  8
0
 10
9.3717
 20
-10.5234
 11
9.20496
 21
-10.6585
  0
LINE
  8
0
 10
9.20496
 20
-10.6585
 11
9.02499
 21
-10.7753
  0
LINE
  8
0
 10
9.02499
 20
-10.7753
 11
8.8338
 21
-10.8728
  0
LINE
  8
0
 10
8.8338
 20
-10.8728
 11
8.63348
 21
-10.9497
  0
LINE
  8
0
 10
8.63348
 20
-10.9497
 11
8.42621
 21
-11.0052
  0
LINE
  8
0
 10
8.42621
 20
-11.0052
 11
8.21428
 21
-11.0388
  0
LINE
  8
0
 10
8.21428
 20
-11.0388
 11
8
 21
-11.05
  0
LINE
  8
0
 10
8
 20
-11.05
 11
7.78571
 21
-11.0388
  0
LINE
  8
0
 10
-37.98
 20
-20.7781
 11
-38.3408
 21
-20.7144
  0
LINE
  8
0
 10
-38.3408
 20
-20.7144
 11
-38.693
 21
-20.6135
  0
LINE
  8
0
 10
-38.693
 20
-20.6135
 11
-39.0327
 21
-20.4762
  0
LINE
  8
0
 10
-39.0327
 20
-20.4762
 11
-39.3561
 21
-20.3042
  0
LINE
  8
0
 10
-39.3561
 20
-20.3042
 11
-39.6598
 21
-20.0994
  0
LINE
  8
0
 10
-39.6598
 20
-20.0994
 11
-39.9405
 21
-19.8639
  0
LINE
  8
0
 10
-39.9405
 20
-19.8639
 11
-40.195
 21
-19.6004
  0
LINE
  8
0
 10
-40.195
 20
-19.6004
 11
-40.4205
 21
-19.3117
  0
LINE
  8
0
 10
-40.4205
 20
-19.3117
 11
-40.6147
 21
-19.001
  0
LINE
  8
0
 10
-40.6147
 20
-19.001
 11
-40.7753
 21
-18.6717
  0
LINE
  8
0
 10
-40.7753
 20
-18.6717
 11
-40.9006
 21
-18.3275
  0
LINE
  8
0
 10
-40.9006
 20
-18.3275
 11
-40.9892
 21
-17.972
  0
LINE
  8
0
 10
-40.9892
 20
-17.972
 11
-41.0402
 21
-17.6092
  0
LINE
  8
0
 10
-41.0402
 20
-17.6092
 11
-41.0529
 21
-17.2431
  0
LINE
  8
0
 10
-41.0529
 20
-17.2431
 11
-41.0274
 21
-16.8776
  0
LINE
  8
0
 10
-41.0274
 20
-16.8776
 11
-40.9638
 21
-16.5168
  0
LINE
  8
0
 10
-40.9638
 20
-16.5168
 11
-40.8628
 21
-16.1647
  0
LINE
  8
0
 10
-40.8628
 20
-16.1647
 11
-40.7256
 21
-15.825
  0
LINE
  8
0
 10
-40.7256
 20
-15.825
 11
-40.5536
 21
-15.5015
  0
LINE
  8
0
 10
-40.5536
 20
-15.5015
 11
-40.3487
 21
-15.1978
  0
LINE
  8
0
 10
-40.3487
 20
-15.1978
 11
-40.1132
 21
-14.9172
  0
LINE
  8
0
 10
-40.1132
 20
-14.9172
 11
-39.8497
 21
-14.6627
  0
LINE
  8
0
 10
-39.8497
 20
-14.6627
 11
-39.561
 21
-14.4371
  0
LINE
  8
0
 10
-39.561
 20
-14.4371
 11
-39.2503
 21
-14.243
  0
LINE
  8
0
 10
-39.2503
 20
-14.243
 11
-38.9211
 21
-14.0824
  0
LINE
  8
0
 10
-38.9211
 20
-14.0824
 11
-38.5768
 21
-13.9571
  0
LINE
  8
0
 10
-38.5768
 20
-13.9571
 11
-38.2213
 21
-13.8685
  0
LINE
  8
0
 10
-38.2213
 20
-13.8685
 11
-37.8585
 21
-13.8175
  0
LINE
  8
0
 10
-37.8585
 20
-13.8175
 11
-37.4924
 21
-13.8047
  0
LINE
  8
0
 10
-37.4924
 20
-13.8047
 11
-37.1269
 21
-13.8302
  0
LINE
  8
0
 10
-37.1269
 20
-13.8302
 11
-36.7662
 21
-13.8939
  0
LINE
  8
0
 10
-36.7662
 20
-13.8939
 11
-36.414
 21
-13.9948
  0
LINE
  8
0
 10
-36.414
 20
-13.9948
 11
-36.0743
 21
-14.1321
  0
LINE
  8
0
 10
-36.0743
 20
-14.1321
 11
-35.7509
 21
-14.3041
  0
LINE
  8
0
 10
-35.7509
 20
-14.3041
 11
-35.4471
 21
-14.5089
  0
LINE
  8
0
 10
-35.4471
 20
-14.5089
 11
-35.1665
 21
-14.7444
  0
LINE
  8
0
 10
-35.1665
 20
-14.7444
 11
-34.912
 21
-15.0079
  0
LINE
  8
0
 10
-34.912
 20
-15.0079
 11
-34.6864
 21
-15.2966
  0
LINE
  8
0
 10
-34.6864
 20
-15.2966
 11
-34.4923
 21
-15.6073
  0
LINE
  8
0
 10
-34.4923
 20
-15.6073
 11
-34.3317
 21
-15.9366
  0
LINE
  8
0
 10
-34.3317
 20
-15.9366
 11
-34.2064
 21
-16.2809
  0
LINE
  8
0
 10
-34.2064
 20
-16.2809
 11
-34.1178
 21
-16.6363
  0
LINE
  8
0
 10
-34.1178
 20
-16.6363
 11
-34.0668
 21
-16.9991
  0
LINE
  8
0
 10
-34.0668
 20
-16.9991
 11
-34.054
 21
-17.3652
  0
LINE
  8
0
 10
-34.054
 20
-17.3652
 11
-34.0796
 21
-17.7307
  0
LINE
  8
0
 10
-34.0796
 20
-17.7307
 11
-34.1432
 21
-18.0915
  0
LINE
  8
0
 10
-34.1432
 20
-18.0915
 11
-34.2442
 21
-18.4436
  0
LINE
  8
0
 10
-34.2442
 20
-18.4436
 11
-34.3814
 21
-18.7833
  0
LINE
  8
0
 10
-34.3814
 20
-18.7833
 11
-34.5534
 21
-19.1068
  0
LINE
  8
0
 10
-34.5534
 20
-19.1068
 11
-34.7583
 21
-19.4105
  0
LINE
  8
0
 10
-34.7583
 20
-19.4105
 11
-34.9937
 21
-19.6911
  0
LINE
  8
0
 10
-34.9937
 20
-19.6911
 11
-35.2573
 21
-19.9456
  0
LINE
  8
0
 10
-35.2573
 20
-19.9456
 11
-35.546
 21
-20.1712
  0
LINE
  8
0
 10
-35.546
 20
-20.1712
 11
-35.8567
 21
-20.3653
  0
LINE
  8
0
 10
-35.8567
 20
-20.3653
 11
-36.1859
 21
-20.5259
  0
LINE
  8
0
 10
-36.1859
 20
-20.5259
 11
-36.5302
 21
-20.6512
  0
LINE
  8
0
 10
-36.5302
 20
-20.6512
 11
-36.8857
 21
-20.7399
  0
LINE
  8
0
 10
-36.8857
 20
-20.7399
 11
-37.2484
 21
-20.7908
  0
LINE
  8
0
 10
-37.2484
 20
-20.7908
 11
-37.6146
 21
-20.8036
  0
LINE
  8
0
 10
-37.6146
 20
-20.8036
 11
-37.98
 21
-20.7781
  0
LINE
  8
0
 10
-24.3389
 20
-23.9274
 11
-24.6996
 21
-23.8638
  0
LINE
  8
0
 10
-24.6996
 20
-23.8638
 11
-25.0518
 21
-23.7628
  0
LINE
  8
0
 10
-25.0518
 20
-23.7628
 11
-25.3915
 21
-23.6255
  0
LINE
  8
0
 10
-25.3915
 20
-23.6255
 11
-25.7149
 21
-23.4536
  0
LINE
  8
0
 10
-25.7149
 20
-23.4536
 11
-26.0187
 21
-23.2487
  0
LINE
  8
0
 10
-26.0187
 20
-23.2487
 11
-26.2993
 21
-23.0132
  0
LINE
  8
0
 10
-26.2993
 20
-23.0132
 11
-26.5538
 21
-22.7497
  0
LINE
  8
0
 10
-26.5538
 20
-22.7497
 11
-26.7793
 21
-22.461
  0
LINE
  8
0
 10
-26.7793
 20
-22.461
 11
-26.9735
 21
-22.1503
  0
LINE
  8
0
 10
-26.9735
 20
-22.1503
 11
-27.1341
 21
-21.821
  0
LINE
  8
0
 10
-27.1341
 20
-21.821
 11
-27.2594
 21
-21.4768
  0
LINE
  8
0
 10
-27.2594
 20
-21.4768
 11
-27.348
 21
-21.1213
  0
LINE
  8
0
 10
-27.348
 20
-21.1213
 11
-27.399
 21
-20.7585
  0
LINE
  8
0
 10
-27.399
 20
-20.7585
 11
-27.4118
 21
-20.3924
  0
LINE
  8
0
 10
-27.4118
 20
-20.3924
 11
-27.3862
 21
-20.0269
  0
LINE
  8
0
 10
-27.3862
 20
-20.0269
 11
-27.3226
 21
-19.6661
  0
LINE
  8
0
 10
-27.3226
 20
-19.6661
 11
-27.2216
 21
-19.314
  0
LINE
  8
0
 10
-27.2216
 20
-19.314
 11
-27.0844
 21
-18.9743
  0
LINE
  8
0
 10
-27.0844
 20
-18.9743
 11
-26.9124
 21
-18.6508
  0
LINE
  8
0
 10
-26.9124
 20
-18.6508
 11
-26.7075
 21
-18.3471
  0
LINE
  8
0
 10
-26.7075
 20
-18.3471
 11
-26.472
 21
-18.0665
  0
LINE
  8
0
 10
-26.472
 20
-18.0665
 11
-26.2085
 21
-17.812
  0
LINE
  8
0
 10
-26.2085
 20
-17.812
 11
-25.9198
 21
-17.5864
  0
LINE
  8
0
 10
-25.9198
 20
-17.5864
 11
-25.6091
 21
-17.3923
  0
LINE
  8
0
 10
-25.6091
 20
-17.3923
 11
-25.2799
 21
-17.2317
  0
LINE
  8
0
 10
-25.2799
 20
-17.2317
 11
-24.9356
 21
-17.1064
  0
LINE
  8
0
 10
-24.9356
 20
-17.1064
 11
-24.5801
 21
-17.0178
  0
LINE
  8
0
 10
-24.5801
 20
-17.0178
 11
-24.2173
 21
-16.9668
  0
LINE
  8
0
 10
-24.2173
 20
-16.9668
 11
-23.8512
 21
-16.954
  0
LINE
  8
0
 10
-23.8512
 20
-16.954
 11
-23.4858
 21
-16.9796
  0
LINE
  8
0
 10
-23.4858
 20
-16.9796
 11
-23.125
 21
-17.0432
  0
LINE
  8
0
 10
-23.125
 20
-17.0432
 11
-22.7728
 21
-17.1442
  0
LINE
  8
0
 10
-22.7728
 20
-17.1442
 11
-22.4331
 21
-17.2814
  0
LINE
  8
0
 10
-22.4331
 20
-17.2814
 11
-22.1097
 21
-17.4534
  0
LINE
  8
0
 10
-22.1097
 20
-17.4534
 11
-21.806
 21
-17.6582
  0
LINE
  8
0
 10
-21.806
 20
-17.6582
 11
-21.5253
 21
-17.8937
  0
LINE
  8
0
 10
-21.5253
 20
-17.8937
 11
-21.2708
 21
-18.1573
  0
LINE
  8
0
 10
-21.2708
 20
-18.1573
 11
-21.0453
 21
-18.446
  0
LINE
  8
0
 10
-21.0453
 20
-18.446
 11
-20.8511
 21
-18.7566
  0
LINE
  8
0
 10
-20.8511
 20
-18.7566
 11
-20.6905
 21
-19.0859
  0
LINE
  8
0
 10
-20.6905
 20
-19.0859
 11
-20.5652
 21
-19.4302
  0
LINE
  8
0
 10
-20.5652
 20
-19.4302
 11
-20.4766
 21
-19.7856
  0
LINE
  8
0
 10
-20.4766
 20
-19.7856
 11
-20.4256
 21
-20.1484
  0
LINE
  8
0
 10
-20.4256
 20
-20.1484
 11
-20.4128
 21
-20.5146
  0
LINE
  8
0
 10
-20.4128
 20
-20.5146
 11
-20.4384
 21
-20.88
  0
LINE
  8
0
 10
-20.4384
 20
-20.88
 11
-20.502
 21
-21.2408
  0
LINE
  8
0
 10
-20.502
 20
-21.2408
 11
-20.603
 21
-21.593
  0
LINE
  8
0
 10
-20.603
 20
-21.593
 11
-20.7402
 21
-21.9326
  0
LINE
  8
0
 10
-20.7402
 20
-21.9326
 11
-20.9122
 21
-22.2561
  0
LINE
  8
0
 10
-20.9122
 20
-22.2561
 11
-21.1171
 21
-22.5598
  0
LINE
  8
0
 10
-21.1171
 20
-22.5598
 11
-21.3526
 21
-22.8405
  0
LINE
  8
0
 10
-21.3526
 20
-22.8405
 11
-21.6161
 21
-23.095
  0
LINE
  8
0
 10
-21.6161
 20
-23.095
 11
-21.9048
 21
-23.3205
  0
LINE
  8
0
 10
-21.9048
 20
-23.3205
 11
-22.2155
 21
-23.5146
  0
LINE
  8
0
 10
-22.2155
 20
-23.5146
 11
-22.5447
 21
-23.6752
  0
LINE
  8
0
 10
-22.5447
 20
-23.6752
 11
-22.889
 21
-23.8005
  0
LINE
  8
0
 10
-22.889
 20
-23.8005
 11
-23.2445
 21
-23.8892
  0
LINE
  8
0
 10
-23.2445
 20
-23.8892
 11
-23.6073
 21
-23.9402
  0
LINE
  8
0
 10
-23.6073
 20
-23.9402
 11
-23.9734
 21
-23.9529
  0
LINE
  8
0
 10
-23.9734
 20
-23.9529
 11
-24.3389
 21
-23.9274
  0
LINE
  8
0
 10
-11.672
 20
-26.8517
 11
-12.0328
 21
-26.7881
  0
LINE
  8
0
 10
-12.0328
 20
-26.7881
 11
-12.385
 21
-26.6871
  0
LINE
  8
0
 10
-12.385
 20
-26.6871
 11
-12.7247
 21
-26.5499
  0
LINE
  8
0
 10
-12.7247
 20
-26.5499
 11
-13.0481
 21
-26.3779
  0
LINE
  8
0
 10
-13.0481
 20
-26.3779
 11
-13.3519
 21
-26.1731
  0
LINE
  8
0
 10
-13.3519
 20
-26.1731
 11
-13.6325
 21
-25.9376
  0
LINE
  8
0
 10
-13.6325
 20
-25.9376
 11
-13.887
 21
-25.674
  0
LINE
  8
0
 10
-13.887
 20
-25.674
 11
-14.1125
 21
-25.3854
  0
LINE
  8
0
 10
-14.1125
 20
-25.3854
 11
-14.3067
 21
-25.0747
  0
LINE
  8
0
 10
-14.3067
 20
-25.0747
 11
-14.4673
 21
-24.7454
  0
LINE
  8
0
 10
-14.4673
 20
-24.7454
 11
-14.5926
 21
-24.4011
  0
LINE
  8
0
 10
-14.5926
 20
-24.4011
 11
-14.6812
 21
-24.0457
  0
LINE
  8
0
 10
-14.6812
 20
-24.0457
 11
-14.7322
 21
-23.6829
  0
LINE
  8
0
 10
-14.7322
 20
-23.6829
 11
-14.745
 21
-23.3168
  0
LINE
  8
0
 10
-14.745
 20
-23.3168
 11
-14.7194
 21
-22.9513
  0
LINE
  8
0
 10
-14.7194
 20
-22.9513
 11
-14.6558
 21
-22.5905
  0
LINE
  8
0
 10
-14.6558
 20
-22.5905
 11
-14.5548
 21
-22.2383
  0
LINE
  8
0
 10
-14.5548
 20
-22.2383
 11
-14.4176
 21
-21.8987
  0
LINE
  8
0
 10
-14.4176
 20
-21.8987
 11
-14.2456
 21
-21.5752
  0
LINE
  8
0
 10
-14.2456
 20
-21.5752
 11
-14.0407
 21
-21.2715
  0
LINE
  8
0
 10
-14.0407
 20
-21.2715
 11
-13.8052
 21
-20.9908
  0
LINE
  8
0
 10
-13.8052
 20
-20.9908
 11
-13.5417
 21
-20.7364
  0
LINE
  8
0
 10
-13.5417
 20
-20.7364
 11
-13.253
 21
-20.5108
  0
LINE
  8
0
 10
-13.253
 20
-20.5108
 11
-12.9423
 21
-20.3167
  0
LINE
  8
0
 10
-12.9423
 20
-20.3167
 11
-12.6131
 21
-20.1561
  0
LINE
  8
0
 10
-12.6131
 20
-20.1561
 11
-12.2688
 21
-20.0308
  0
LINE
  8
0
 10
-12.2688
 20
-20.0308
 11
-11.9133
 21
-19.9421
  0
LINE
  8
0
 10
-11.9133
 20
-19.9421
 11
-11.5505
 21
-19.8912
  0
LINE
  8
0
 10
-11.5505
 20
-19.8912
 11
-11.1844
 21
-19.8784
  0
LINE
  8
0
 10
-11.1844
 20
-19.8784
 11
-10.819
 21
-19.9039
  0
LINE
  8
0
 10
-10.819
 20
-19.9039
 11
-10.4582
 21
-19.9675
  0
LINE
  8
0
 10
-10.4582
 20
-19.9675
 11
-10.106
 21
-20.0685
  0
LINE
  8
0
 10
-10.106
 20
-20.0685
 11
-9.76633
 21
-20.2058
  0
LINE
  8
0
 10
-9.76633
 20
-20.2058
 11
-9.44286
 21
-20.3777
  0
LINE
  8
0
 10
-9.44286
 20
-20.3777
 11
-9.13914
 21
-20.5826
  0
LINE
  8
0
 10
-9.13914
 20
-20.5826
 11
-8.85851
 21
-20.8181
  0
LINE
  8
0
 10
-8.85851
 20
-20.8181
 11
-8.604
 21
-21.0816
  0
LINE
  8
0
 10
-8.604
 20
-21.0816
 11
-8.37846
 21
-21.3703
  0
LINE
  8
0
 10
-8.37846
 20
-21.3703
 11
-8.18433
 21
-21.681
  0
LINE
  8
0
 10
-8.18433
 20
-21.681
 11
-8.02373
 21
-22.0103
  0
LINE
  8
0
 10
-8.02373
 20
-22.0103
 11
-7.89842
 21
-22.3545
  0
LINE
  8
0
 10
-7.89842
 20
-22.3545
 11
-7.8098
 21
-22.71
  0
LINE
  8
0
 10
-7.8098
 20
-22.71
 11
-7.75882
 21
-23.0728
  0
LINE
  8
0
 10
-7.75882
 20
-23.0728
 11
-7.74603
 21
-23.4389
  0
LINE
  8
0
 10
-7.74603
 20
-23.4389
 11
-7.77158
 21
-23.8044
  0
LINE
  8
0
 10
-7.77158
 20
-23.8044
 11
-7.83521
 21
-24.1652
  0
LINE
  8
0
 10
-7.83521
 20
-24.1652
 11
-7.93617
 21
-24.5173
  0
LINE
  8
0
 10
-7.93617
 20
-24.5173
 11
-8.07341
 21
-24.857
  0
LINE
  8
0
 10
-8.07341
 20
-24.857
 11
-8.24541
 21
-25.1805
  0
LINE
  8
0
 10
-8.24541
 20
-25.1805
 11
-8.45027
 21
-25.4842
  0
LINE
  8
0
 10
-8.45027
 20
-25.4842
 11
-8.68576
 21
-25.7648
  0
LINE
  8
0
 10
-8.68576
 20
-25.7648
 11
-8.94928
 21
-26.0193
  0
LINE
  8
0
 10
-8.94928
 20
-26.0193
 11
-9.23798
 21
-26.2449
  0
LINE
  8
0
 10
-9.23798
 20
-26.2449
 11
-9.54866
 21
-26.439
  0
LINE
  8
0
 10
-9.54866
 20
-26.439
 11
-9.87793
 21
-26.5996
  0
LINE
  8
0
 10
-9.87793
 20
-26.5996
 11
-10.2222
 21
-26.7249
  0
LINE
  8
0
 10
-10.2222
 20
-26.7249
 11
-10.5777
 21
-26.8135
  0
LINE
  8
0
 10
-10.5777
 20
-26.8135
 11
-10.9404
 21
-26.8645
  0
LINE
  8
0
 10
-10.9404
 20
-26.8645
 11
-11.3066
 21
-26.8773
  0
LINE
  8
0
 10
-11.3066
 20
-26.8773
 11
-11.672
 21
-26.8517
  0
LINE
  8
0
 10
-56.4007
 20
-38.6562
 11
-52.2953
 21
-20.874
  0
LINE
  8
0
 10
-52.2953
 20
-20.874
 11
-49.2017
 21
-21.5882
  0
LINE
  8
0
 10
-49.2017
 20
-21.5882
 11
-53.3071
 21
-39.3705
  0
LINE
  8
0
 10
-53.3071
 20
-39.3705
 11
-56.4007
 21
-38.6562
  0
LINE
  8
0
 10
-26.3658
 20
-36.4808
 11
-26.7277
 21
-36.4235
  0
LINE
  8
0
 10
-26.7277
 20
-36.4235
 11
-27.0816
 21
-36.3287
  0
LINE
  8
0
 10
-27.0816
 20
-36.3287
 11
-27.4236
 21
-36.1974
  0
LINE
  8
0
 10
-27.4236
 20
-36.1974
 11
-27.75
 21
-36.0311
  0
LINE
  8
0
 10
-27.75
 20
-36.0311
 11
-28.0572
 21
-35.8316
  0
LINE
  8
0
 10
-28.0572
 20
-35.8316
 11
-28.3419
 21
-35.601
  0
LINE
  8
0
 10
-28.3419
 20
-35.601
 11
-28.601
 21
-35.3419
  0
LINE
  8
0
 10
-28.601
 20
-35.3419
 11
-28.8316
 21
-35.0572
  0
LINE
  8
0
 10
-28.8316
 20
-35.0572
 11
-29.0311
 21
-34.75
  0
LINE
  8
0
 10
-29.0311
 20
-34.75
 11
-29.1974
 21
-34.4236
  0
LINE
  8
0
 10
-29.1974
 20
-34.4236
 11
-29.3287
 21
-34.0816
  0
LINE
  8
0
 10
-29.3287
 20
-34.0816
 11
-29.4235
 21
-33.7277
  0
LINE
  8
0
 10
-29.4235
 20
-33.7277
 11
-29.4808
 21
-33.3658
  0
LINE
  8
0
 10
-29.4808
 20
-33.3658
 11
-29.5
 21
-33
  0
LINE
  8
0
 10
-29.5
 20
-33
 11
-29.4808
 21
-32.6341
  0
LINE
  8
0
 10
-29.4808
 20
-32.6341
 11
-29.4235
 21
-32.2723
  0
LINE
  8
0
 10
-29.4235
 20
-32.2723
 11
-29.3287
 21
-31.9184
  0
LINE
  8
0
 10
-29.3287
 20
-31.9184
 11
-29.1974
 21
-31.5764
  0
LINE
  8
0
 10
-29.1974
 20
-31.5764
 11
-29.0311
 21
-31.25
  0
LINE
  8
0
 10
-29.0311
 20
-31.25
 11
-28.8316
 21
-30.9427
  0
LINE
  8
0
 10
-28.8316
 20
-30.9427
 11
-28.601
 21
-30.658
  0
LINE
  8
0
 10
-28.601
 20
-30.658
 11
-28.3419
 21
-30.399
  0
LINE
  8
0
 10
-28.3419
 20
-30.399
 11
-28.0572
 21
-30.1684
  0
LINE
  8
0
 10
-28.0572
 20
-30.1684
 11
-27.75
 21
-29.9689
  0
LINE
  8
0
 10
-27.75
 20
-29.9689
 11
-27.4236
 21
-29.8026
  0
LINE
  8
0
 10
-27.4236
 20
-29.8026
 11
-27.0816
 21
-29.6713
  0
LINE
  8
0
 10
-27.0816
 20
-29.6713
 11
-26.7277
 21
-29.5765
  0
LINE
  8
0
 10
-26.7277
 20
-29.5765
 11
-26.3658
 21
-29.5192
  0
LINE
  8
0
 10
-26.3658
 20
-29.5192
 11
-26
 21
-29.5
  0
LINE
  8
0
 10
-26
 20
-29.5
 11
-25.6341
 21
-29.5192
  0
LINE
  8
0
 10
-25.6341
 20
-29.5192
 11
-25.2723
 21
-29.5765
  0
LINE
  8
0
 10
-25.2723
 20
-29.5765
 11
-24.9184
 21
-29.6713
  0
LINE
  8
0
 10
-24.9184
 20
-29.6713
 11
-24.5764
 21
-29.8026
  0
LINE
  8
0
 10
-24.5764
 20
-29.8026
 11
-24.25
 21
-29.9689
  0
LINE
  8
0
 10
-24.25
 20
-29.9689
 11
-23.9427
 21
-30.1684
  0
LINE
  8
0
 10
-23.9427
 20
-30.1684
 11
-23.658
 21
-30.399
  0
LINE
  8
0
 10
-23.658
 20
-30.399
 11
-23.399
 21
-30.658
  0
LINE
  8
0
 10
-23.399
 20
-30.658
 11
-23.1684
 21
-30.9427
  0
LINE
  8
0
 10
-23.1684
 20
-30.9427
 11
-22.9689
 21
-31.25
  0
LINE
  8
0
 10
-22.9689
 20
-31.25
 11
-22.8026
 21
-31.5764
  0
LINE
  8
0
 10
-22.8026
 20
-31.5764
 11
-22.6713
 21
-31.9184
  0
LINE
  8
0
 10
-22.6713
 20
-31.9184
 11
-22.5765
 21
-32.2723
  0
LINE
  8
0
 10
-22.5765
 20
-32.2723
 11
-22.5192
 21
-32.6341
  0
LINE
  8
0
 10
-22.5192
 20
-32.6341
 11
-22.5
 21
-33
  0
LINE
  8
0
 10
-22.5
 20
-33
 11
-22.5192
 21
-33.3658
  0
LINE
  8
0
 10
-22.5192
 20
-33.3658
 11
-22.5765
 21
-33.7277
  0
LINE
  8
0
 10
-22.5765
 20
-33.7277
 11
-22.6713
 21
-34.0816
  0
LINE
  8
0
 10
-22.6713
 20
-34.0816
 11
-22.8026
 21
-34.4236
  0
LINE
  8
0
 10
-22.8026
 20
-34.4236
 11
-22.9689
 21
-34.75
  0
LINE
  8
0
 10
-22.9689
 20
-34.75
 11
-23.1684
 21
-35.0572
  0
LINE
  8
0
 10
-23.1684
 20
-35.0572
 11
-23.399
 21
-35.3419
  0
LINE
  8
0
 10
-23.399
 20
-35.3419
 11
-23.658
 21
-35.601
  0
LINE
  8
0
 10
-23.658
 20
-35.601
 11
-23.9427
 21
-35.8316
  0
LINE
  8
0
 10
-23.9427
 20
-35.8316
 11
-24.25
 21
-36.0311
  0
LINE
  8
0
 10
-24.25
 20
-36.0311
 11
-24.5764
 21
-36.1974
  0
LINE
  8
0
 10
-24.5764
 20
-36.1974
 11
-24.9184
 21
-36.3287
  0
LINE
  8
0
 10
-24.9184
 20
-36.3287
 11
-25.2723
 21
-36.4235
  0
LINE
  8
0
 10
-25.2723
 20
-36.4235
 11
-25.6341
 21
-36.4808
  0
LINE
  8
0
 10
-25.6341
 20
-36.4808
 11
-26
 21
-36.5
  0
LINE
  8
0
 10
-26
 20
-36.5
 11
-26.3658
 21
-36.4808
  0
LINE
  8
0
 10
-39.4086
 20
-42.6102
 11
-38.6944
 21
-39.5165
  0
LINE
  8
0
 10
-38.6944
 20
-39.5165
 11
-4.5914
 21
-47.3898
  0
LINE
  8
0
 10
-4.5914
 20
-47.3898
 11
-5.30563
 21
-50.4834
  0
LINE
  8
0
 10
-5.30563
 20
-50.4834
 11
-39.4086
 21
-42.6102
  0
LINE
  8
0
 10
-64.5266
 20
-33.2071
 11
-67.608
 21
-32.4957
  0
LINE
  8
0
 10
-67.608
 20
-32.4957
 11
-67.4955
 21
-32.0085
  0
LINE
  8
0
 10
-67.4955
 20
-32.0085
 11
-76.7642
 21
-29.8687
  0
LINE
  8
0
 10
-76.7642
 20
-29.8687
 11
-73.3899
 21
-15.2531
  0
LINE
  8
0
 10
-73.3899
 20
-15.2531
 11
-64.1212
 21
-17.393
  0
LINE
  8
0
 10
-64.1212
 20
-17.393
 11
-63.109
 21
-13.0083
  0
LINE
  8
0
 10
-63.109
 20
-13.0083
 11
-60.0275
 21
-13.7197
  0
LINE
  8
0
 10
-60.0275
 20
-13.7197
 11
-55.5285
 21
5.76768
  0
LINE
  8
0
 10
-55.5285
 20
5.76768
 11
-58.6099
 21
6.4791
  0
LINE
  8
0
 10
-58.6099
 20
6.4791
 11
-54.1109
 21
25.9665
  0
LINE
  8
0
 10
-54.1109
 20
25.9665
 11
-51.0295
 21
25.2551
  0
LINE
  8
0
 10
-51.0295
 20
25.2551
 11
-46.1368
 21
46.4476
  0
LINE
  8
0
 10
-46.1368
 20
46.4476
 11
-54.833
 21
48.4553
  0
LINE
  8
0
 10
-54.833
 20
48.4553
 11
-55.4713
 21
45.6905
  0
LINE
  8
0
 10
-55.4713
 20
45.6905
 11
-72.5228
 21
49.6272
  0
LINE
  8
0
 10
-72.5228
 20
49.6272
 11
-71.8845
 21
52.392
  0
LINE
  8
0
 10
-71.8845
 20
52.392
 11
-80.5807
 21
54.3996
  0
LINE
  8
0
 10
-80.5807
 20
54.3996
 11
-85.4734
 21
33.2071
  0
LINE
  8
0
 10
-85.4734
 20
33.2071
 11
-82.392
 21
32.4957
  0
LINE
  8
0
 10
-82.392
 20
32.4957
 11
-86.891
 21
13.0083
  0
LINE
  8
0
 10
-86.891
 20
13.0083
 11
-89.9725
 21
13.7197
  0
LINE
  8
0
 10
-89.9725
 20
13.7197
 11
-94.4715
 21
-5.76768
  0
LINE
  8
0
 10
-94.4715
 20
-5.76768
 11
-91.39
 21
-6.4791
  0
LINE
  8
0
 10
-91.39
 20
-6.4791
 11
-95.8891
 21
-25.9665
  0
LINE
  8
0
 10
-95.8891
 20
-25.9665
 11
-98.9705
 21
-25.2551
  0
LINE
  8
0
 10
-98.9705
 20
-25.2551
 11
-103.076
 21
-43.0373
  0
LINE
  8
0
 10
-103.076
 20
-43.0373
 11
-94.3796
 21
-45.045
  0
LINE
  8
0
 10
-94.3796
 20
-45.045
 11
-93.6738
 21
-41.9879
  0
LINE
  8
0
 10
-93.6738
 20
-41.9879
 11
-76.6224
 21
-45.9246
  0
LINE
  8
0
 10
-76.6224
 20
-45.9246
 11
-77.3281
 21
-48.9817
  0
LINE
  8
0
 10
-77.3281
 20
-48.9817
 11
-68.6319
 21
-50.9893
  0
LINE
  8
0
 10
-68.6319
 20
-50.9893
 11
-64.5266
 21
-33.2071
  0
LINE
  8
0
 10
37.8547
 20
-73.8452
 11
20.3161
 21
-69.7961
  0
LINE
  8
0
 10
20.3161
 20
-69.7961
 11
21.0275
 21
-66.7147
  0
LINE
  8
0
 10
21.0275
 20
-66.7147
 11
-13.0755
 21
-58.8414
  0
LINE
  8
0
 10
-13.0755
 20
-58.8414
 11
-13.7869
 21
-61.9228
  0
LINE
  8
0
 10
-13.7869
 20
-61.9228
 11
-27.83
 21
-58.6807
  0
LINE
  8
0
 10
-27.83
 20
-58.6807
 11
-29.1712
 21
-64.4904
  0
LINE
  8
0
 10
-29.1712
 20
-64.4904
 11
-32.1796
 21
-63.7959
  0
LINE
  8
0
 10
-32.1796
 20
-63.7959
 11
-36.0263
 21
-80.4576
  0
LINE
  8
0
 10
-36.0263
 20
-80.4576
 11
-33.0179
 21
-81.1521
  0
LINE
  8
0
 10
-33.0179
 20
-81.1521
 11
-34.3592
 21
-86.9618
  0
LINE
  8
0
 10
-34.3592
 20
-86.9618
 11
-15.4442
 21
-91.3286
  0
LINE
  8
0
 10
-15.4442
 20
-91.3286
 11
-16.1556
 21
-94.4101
  0
LINE
  8
0
 10
-16.1556
 20
-94.4101
 11
8.20361
 21
-100.034
  0
LINE
  8
0
 10
8.20361
 20
-100.034
 11
8.91502
 21
-96.9524
  0
LINE
  8
0
 10
8.91502
 20
-96.9524
 11
31.3255
 21
-102.126
  0
LINE
  8
0
 10
31.3255
 20
-102.126
 11
37.8547
 21
-73.8452
  0
LINE
  8
0
 10
-14.7562
 20
-78.629
 11
-15.0654
 21
-78.5745
  0
LINE
  8
0
 10
-15.0654
 20
-78.5745
 11
-15.3673
 21
-78.4879
  0
LINE
  8
0
 10
-15.3673
 20
-78.4879
 11
-15.6584
 21
-78.3703
  0
LINE
  8
0
 10
-15.6584
 20
-78.3703
 11
-15.9357
 21
-78.2229
  0
LINE
  8
0
 10
-15.9357
 20
-78.2229
 11
-16.196
 21
-78.0473
  0
LINE
  8
0
 10
-16.196
 20
-78.0473
 11
-16.4366
 21
-77.8454
  0
LINE
  8
0
 10
-16.4366
 20
-77.8454
 11
-16.6547
 21
-77.6195
  0
LINE
  8
0
 10
-16.6547
 20
-77.6195
 11
-16.848
 21
-77.3721
  0
LINE
  8
0
 10
-16.848
 20
-77.3721
 11
-17.0145
 21
-77.1058
  0
LINE
  8
0
 10
-17.0145
 20
-77.1058
 11
-17.1521
 21
-76.8235
  0
LINE
  8
0
 10
-17.1521
 20
-76.8235
 11
-17.2595
 21
-76.5285
  0
LINE
  8
0
 10
-17.2595
 20
-76.5285
 11
-17.3355
 21
-76.2238
  0
LINE
  8
0
 10
-17.3355
 20
-76.2238
 11
-17.3792
 21
-75.9128
  0
LINE
  8
0
 10
-17.3792
 20
-75.9128
 11
-17.3901
 21
-75.599
  0
LINE
  8
0
 10
-17.3901
 20
-75.599
 11
-17.3682
 21
-75.2858
  0
LINE
  8
0
 10
-17.3682
 20
-75.2858
 11
-17.3137
 21
-74.9765
  0
LINE
  8
0
 10
-17.3137
 20
-74.9765
 11
-17.2271
 21
-74.6747
  0
LINE
  8
0
 10
-17.2271
 20
-74.6747
 11
-17.1095
 21
-74.3835
  0
LINE
  8
0
 10
-17.1095
 20
-74.3835
 11
-16.9621
 21
-74.1062
  0
LINE
  8
0
 10
-16.9621
 20
-74.1062
 11
-16.7865
 21
-73.8459
  0
LINE
  8
0
 10
-16.7865
 20
-73.8459
 11
-16.5846
 21
-73.6054
  0
LINE
  8
0
 10
-16.5846
 20
-73.6054
 11
-16.3588
 21
-73.3872
  0
LINE
  8
0
 10
-16.3588
 20
-73.3872
 11
-16.1113
 21
-73.1939
  0
LINE
  8
0
 10
-16.1113
 20
-73.1939
 11
-15.845
 21
-73.0275
  0
LINE
  8
0
 10
-15.845
 20
-73.0275
 11
-15.5628
 21
-72.8898
  0
LINE
  8
0
 10
-15.5628
 20
-72.8898
 11
-15.2677
 21
-72.7825
  0
LINE
  8
0
 10
-15.2677
 20
-72.7825
 11
-14.963
 21
-72.7065
  0
LINE
  8
0
 10
-14.963
 20
-72.7065
 11
-14.6521
 21
-72.6628
  0
LINE
  8
0
 10
-14.6521
 20
-72.6628
 11
-14.3382
 21
-72.6518
  0
LINE
  8
0
 10
-14.3382
 20
-72.6518
 11
-14.025
 21
-72.6737
  0
LINE
  8
0
 10
-14.025
 20
-72.6737
 11
-13.7157
 21
-72.7282
  0
LINE
  8
0
 10
-13.7157
 20
-72.7282
 11
-13.4139
 21
-72.8148
  0
LINE
  8
0
 10
-13.4139
 20
-72.8148
 11
-13.1227
 21
-72.9324
  0
LINE
  8
0
 10
-13.1227
 20
-72.9324
 11
-12.8455
 21
-73.0799
  0
LINE
  8
0
 10
-12.8455
 20
-73.0799
 11
-12.5851
 21
-73.2555
  0
LINE
  8
0
 10
-12.5851
 20
-73.2555
 11
-12.3446
 21
-73.4573
  0
LINE
  8
0
 10
-12.3446
 20
-73.4573
 11
-12.1264
 21
-73.6832
  0
LINE
  8
0
 10
-12.1264
 20
-73.6832
 11
-11.9331
 21
-73.9306
  0
LINE
  8
0
 10
-11.9331
 20
-73.9306
 11
-11.7667
 21
-74.1969
  0
LINE
  8
0
 10
-11.7667
 20
-74.1969
 11
-11.6291
 21
-74.4792
  0
LINE
  8
0
 10
-11.6291
 20
-74.4792
 11
-11.5217
 21
-74.7742
  0
LINE
  8
0
 10
-11.5217
 20
-74.7742
 11
-11.4457
 21
-75.0789
  0
LINE
  8
0
 10
-11.4457
 20
-75.0789
 11
-11.402
 21
-75.3899
  0
LINE
  8
0
 10
-11.402
 20
-75.3899
 11
-11.391
 21
-75.7037
  0
LINE
  8
0
 10
-11.391
 20
-75.7037
 11
-11.4129
 21
-76.017
  0
LINE
  8
0
 10
-11.4129
 20
-76.017
 11
-11.4675
 21
-76.3262
  0
LINE
  8
0
 10
-11.4675
 20
-76.3262
 11
-11.554
 21
-76.6281
  0
LINE
  8
0
 10
-11.554
 20
-76.6281
 11
-11.6717
 21
-76.9192
  0
LINE
  8
0
 10
-11.6717
 20
-76.9192
 11
-11.8191
 21
-77.1965
  0
LINE
  8
0
 10
-11.8191
 20
-77.1965
 11
-11.9947
 21
-77.4568
  0
LINE
  8
0
 10
-11.9947
 20
-77.4568
 11
-12.1965
 21
-77.6973
  0
LINE
  8
0
 10
-12.1965
 20
-77.6973
 11
-12.4224
 21
-77.9155
  0
LINE
  8
0
 10
-12.4224
 20
-77.9155
 11
-12.6698
 21
-78.1088
  0
LINE
  8
0
 10
-12.6698
 20
-78.1088
 11
-12.9362
 21
-78.2752
  0
LINE
  8
0
 10
-12.9362
 20
-78.2752
 11
-13.2184
 21
-78.4129
  0
LINE
  8
0
 10
-13.2184
 20
-78.4129
 11
-13.5135
 21
-78.5203
  0
LINE
  8
0
 10
-13.5135
 20
-78.5203
 11
-13.8182
 21
-78.5962
  0
LINE
  8
0
 10
-13.8182
 20
-78.5962
 11
-14.1291
 21
-78.6399
  0
LINE
  8
0
 10
-14.1291
 20
-78.6399
 11
-14.4429
 21
-78.6509
  0
LINE
  8
0
 10
-14.4429
 20
-78.6509
 11
-14.7562
 21
-78.629
  0
LINE
  8
0
 10
8.50679
 20
-85.0204
 11
8.09447
 21
-84.9477
  0
LINE
  8
0
 10
8.09447
 20
-84.9477
 11
7.692
 21
-84.8322
  0
LINE
  8
0
 10
7.692
 20
-84.8322
 11
7.3038
 21
-84.6754
  0
LINE
  8
0
 10
7.3038
 20
-84.6754
 11
6.93413
 21
-84.4788
  0
LINE
  8
0
 10
6.93413
 20
-84.4788
 11
6.58701
 21
-84.2447
  0
LINE
  8
0
 10
6.58701
 20
-84.2447
 11
6.26627
 21
-83.9756
  0
LINE
  8
0
 10
6.26627
 20
-83.9756
 11
5.97543
 21
-83.6744
  0
LINE
  8
0
 10
5.97543
 20
-83.6744
 11
5.71767
 21
-83.3445
  0
LINE
  8
0
 10
5.71767
 20
-83.3445
 11
5.4958
 21
-82.9894
  0
LINE
  8
0
 10
5.4958
 20
-82.9894
 11
5.31226
 21
-82.6131
  0
LINE
  8
0
 10
5.31226
 20
-82.6131
 11
5.16905
 21
-82.2197
  0
LINE
  8
0
 10
5.16905
 20
-82.2197
 11
5.06776
 21
-81.8134
  0
LINE
  8
0
 10
5.06776
 20
-81.8134
 11
5.00949
 21
-81.3988
  0
LINE
  8
0
 10
5.00949
 20
-81.3988
 11
4.99487
 21
-80.9804
  0
LINE
  8
0
 10
4.99487
 20
-80.9804
 11
5.02409
 21
-80.5627
  0
LINE
  8
0
 10
5.02409
 20
-80.5627
 11
5.09679
 21
-80.1504
  0
LINE
  8
0
 10
5.09679
 20
-80.1504
 11
5.2122
 21
-79.7479
  0
LINE
  8
0
 10
5.2122
 20
-79.7479
 11
5.36903
 21
-79.3597
  0
LINE
  8
0
 10
5.36903
 20
-79.3597
 11
5.5656
 21
-78.99
  0
LINE
  8
0
 10
5.5656
 20
-78.99
 11
5.79973
 21
-78.6429
  0
LINE
  8
0
 10
5.79973
 20
-78.6429
 11
6.06885
 21
-78.3222
  0
LINE
  8
0
 10
6.06885
 20
-78.3222
 11
6.37004
 21
-78.0313
  0
LINE
  8
0
 10
6.37004
 20
-78.0313
 11
6.69997
 21
-77.7736
  0
LINE
  8
0
 10
6.69997
 20
-77.7736
 11
7.05502
 21
-77.5517
  0
LINE
  8
0
 10
7.05502
 20
-77.5517
 11
7.43134
 21
-77.3682
  0
LINE
  8
0
 10
7.43134
 20
-77.3682
 11
7.82478
 21
-77.225
  0
LINE
  8
0
 10
7.82478
 20
-77.225
 11
8.23103
 21
-77.1237
  0
LINE
  8
0
 10
8.23103
 20
-77.1237
 11
8.64565
 21
-77.0654
  0
LINE
  8
0
 10
8.64565
 20
-77.0654
 11
9.06407
 21
-77.0508
  0
LINE
  8
0
 10
9.06407
 20
-77.0508
 11
9.48174
 21
-77.08
  0
LINE
  8
0
 10
9.48174
 20
-77.08
 11
9.89407
 21
-77.1527
  0
LINE
  8
0
 10
9.89407
 20
-77.1527
 11
10.2965
 21
-77.2681
  0
LINE
  8
0
 10
10.2965
 20
-77.2681
 11
10.6847
 21
-77.425
  0
LINE
  8
0
 10
10.6847
 20
-77.425
 11
11.0544
 21
-77.6215
  0
LINE
  8
0
 10
11.0544
 20
-77.6215
 11
11.4015
 21
-77.8557
  0
LINE
  8
0
 10
11.4015
 20
-77.8557
 11
11.7223
 21
-78.1248
  0
LINE
  8
0
 10
11.7223
 20
-78.1248
 11
12.0131
 21
-78.426
  0
LINE
  8
0
 10
12.0131
 20
-78.426
 11
12.2709
 21
-78.7559
  0
LINE
  8
0
 10
12.2709
 20
-78.7559
 11
12.4927
 21
-79.1109
  0
LINE
  8
0
 10
12.4927
 20
-79.1109
 11
12.6763
 21
-79.4873
  0
LINE
  8
0
 10
12.6763
 20
-79.4873
 11
12.8195
 21
-79.8807
  0
LINE
  8
0
 10
12.8195
 20
-79.8807
 11
12.9208
 21
-80.287
  0
LINE
  8
0
 10
12.9208
 20
-80.287
 11
12.979
 21
-80.7016
  0
LINE
  8
0
 10
12.979
 20
-80.7016
 11
12.9937
 21
-81.12
  0
LINE
  8
0
 10
12.9937
 20
-81.12
 11
12.9644
 21
-81.5377
  0
LINE
  8
0
 10
12.9644
 20
-81.5377
 11
12.8918
 21
-81.95
  0
LINE
  8
0
 10
12.8918
 20
-81.95
 11
12.7763
 21
-82.3525
  0
LINE
  8
0
 10
12.7763
 20
-82.3525
 11
12.6195
 21
-82.7407
  0
LINE
  8
0
 10
12.6195
 20
-82.7407
 11
12.4229
 21
-83.1103
  0
LINE
  8
0
 10
12.4229
 20
-83.1103
 11
12.1888
 21
-83.4574
  0
LINE
  8
0
 10
12.1888
 20
-83.4574
 11
11.9197
 21
-83.7782
  0
LINE
  8
0
 10
11.9197
 20
-83.7782
 11
11.6185
 21
-84.069
  0
LINE
  8
0
 10
11.6185
 20
-84.069
 11
11.2886
 21
-84.3268
  0
LINE
  8
0
 10
11.2886
 20
-84.3268
 11
10.9335
 21
-84.5486
  0
LINE
  8
0
 10
10.9335
 20
-84.5486
 11
10.5572
 21
-84.7322
  0
LINE
  8
0
 10
10.5572
 20
-84.7322
 11
10.1638
 21
-84.8754
  0
LINE
  8
0
 10
10.1638
 20
-84.8754
 11
9.75751
 21
-84.9767
  0
LINE
  8
0
 10
9.75751
 20
-84.9767
 11
9.34288
 21
-85.0349
  0
LINE
  8
0
 10
9.34288
 20
-85.0349
 11
8.92445
 21
-85.0496
  0
LINE
  8
0
 10
8.92445
 20
-85.0496
 11
8.50679
 21
-85.0204
  0
ENDSEC
  0
SECTION
  2
OBJECTS
  0
DICTIONARY
  0
ENDSEC
  0
EOF
