  0
SECTION
  2
BLOCKS
  0
ENDSEC
  0
SECTION
  2
ENTITIES
  0
LINE
  8
0
 10
192
 20
251.46
 11
182
 21
251.46
  0
LINE
  8
0
 10
182
 20
251.46
 11
182
 21
241.46
  0
LINE
  8
0
 10
182
 20
241.46
 11
192
 21
241.46
  0
LINE
  8
0
 10
192
 20
241.46
 11
192
 21
251.46
  0
LINE
  8
0
 10
10
 20
251.46
 11
0
 21
251.46
  0
LINE
  8
0
 10
0
 20
251.46
 11
0
 21
241.46
  0
LINE
  8
0
 10
0
 20
241.46
 11
10
 21
241.46
  0
LINE
  8
0
 10
10
 20
241.46
 11
10
 21
251.46
  0
LINE
  8
0
 10
10
 20
10
 11
0
 21
10
  0
LINE
  8
0
 10
0
 20
10
 11
0
 21
0
  0
LINE
  8
0
 10
0
 20
0
 11
10
 21
0
  0
LINE
  8
0
 10
10
 20
0
 11
10
 21
10
  0
LINE
  8
0
 10
192
 20
10
 11
182
 21
10
  0
LINE
  8
0
 10
182
 20
10
 11
182
 21
0
  0
LINE
  8
0
 10
182
 20
0
 11
192
 21
0
  0
LINE
  8
0
 10
192
 20
0
 11
192
 21
10
  0
ENDSEC
  0
SECTION
  2
OBJECTS
  0
DICTIONARY
  0
ENDSEC
  0
EOF
