  0
SECTION
  2
BLOCKS
  0
ENDSEC
  0
SECTION
  2
ENTITIES
  0
LINE
  8
0
 10
192
 20
250.878
 11
182
 21
250.878
  0
LINE
  8
0
 10
182
 20
250.878
 11
182
 21
240.878
  0
LINE
  8
0
 10
182
 20
240.878
 11
192
 21
240.878
  0
LINE
  8
0
 10
192
 20
240.878
 11
192
 21
250.878
  0
LINE
  8
0
 10
10
 20
250.878
 11
0
 21
250.878
  0
LINE
  8
0
 10
0
 20
250.878
 11
0
 21
240.878
  0
LINE
  8
0
 10
0
 20
240.878
 11
10
 21
240.878
  0
LINE
  8
0
 10
10
 20
240.878
 11
10
 21
250.878
  0
LINE
  8
0
 10
10
 20
10
 11
0
 21
10
  0
LINE
  8
0
 10
0
 20
10
 11
0
 21
0
  0
LINE
  8
0
 10
0
 20
0
 11
10
 21
0
  0
LINE
  8
0
 10
10
 20
0
 11
10
 21
10
  0
LINE
  8
0
 10
192
 20
10
 11
182
 21
10
  0
LINE
  8
0
 10
182
 20
10
 11
182
 21
0
  0
LINE
  8
0
 10
182
 20
0
 11
192
 21
0
  0
LINE
  8
0
 10
192
 20
0
 11
192
 21
10
  0
ENDSEC
  0
SECTION
  2
OBJECTS
  0
DICTIONARY
  0
ENDSEC
  0
EOF
